» » »

Hey Jude Bass tabs (ver.1)

Artists:  A B C D E F G H I J K L M N O P Q R S T U V W X Y Z # 

Hey Jude Bass tabs (ver.1)

Beatles
Rating:
0/5 (0 votes)

Hard to play? Try these video lessons and learn fast.
                G-------------0-----------3--3-1---0-------0-0---5-3-1-0--------0------------------3-0-0-------0--3-0--3--3--0----------0---------------
D---3-0--0-3---------0-1--------3---3-0--3---------------3----0---3---3-1-0-------------3-3-1-----------1------3-1-3--3--3-1--0--------
A---------------3---3----------------------------------------1-3---------------3-0-1---------------------------------------------------3--1--
E-----------------------------------------------------------------------------------------------------------------------------------------------

G---------------------------0--1-1-2--3--5-5-------------0---------3-----3-0-0-------0-0--5-3-1-0-------0------------------------5-3-3--5-3-3---
D--1-0------------0------3----------------------3-0--0-3-------0-1-------------3-3-1---------------3----0--3--3-1-0----------0-3----------------
A------3-1-3--3-3-----1------------------------------------3-3----------------------------------------1-3-------------3-0-1---1-----------------
E-----------------------------------------------------------------------------------------------------------------------------------------------

G--1-0-----------5-3-3--5-3-3---1-0-----3--------1------0-----3-0----
D------3----0-3-----------------------3-------------------------------3-
A---------1--------------------------------------------------------------
E-------------------------------------------------------------------------
            
Hard to play? Try these video lessons and learn fast. | Correct




comments powered by Disqus
↑ Back to top | Tablatures and chords are parodies/interpretations of the original songs. You may use it for private study, scholarship, research or language learning purposes only