» » »

Beatles, Got To Get You Into My Life Bass tabs (ver.2)

Artists:  A B C D E F G H I J K L M N O P Q R S T U V W X Y Z # 

Got To Get You Into My Life Bass tabs (ver.2)

Beatles Tabs
Rating:
0/5 (0 votes)
Hard to play? Try these video lessons and learn fast.
                Got To Get You Into My Life
The Beatles
Written by John Lennon and Paul McCartney; released on "Revolver" album

Great song, the brass section is very good in it! Paul wrote the song about 
drugs, but I think it's great as a love song as well.

Intro:
G|------ ------ ------ ------|------ ------ ------ ------|
D|5--------------------------|---------------------------|
A|---------------------------|---------------------------|
E|3--------------------------|---------------------------|



G|------ ------ ------ ------|------ ------ ------ ------|
D|---------------------------|---------------------------|
A|---------------------------|---------------------------|
E|---------------------------|---------------------------|


Verse:
G|------ ------ ------ ------|------ ------ ------ ------|
D|5------5------5------5-----|5------5------5------5-----|
A|---------------------------|-------------------------5-|
E|---------------------------|---------------------------|
      I  was        I  took       I  didn't     what would
           alone,        a ride,         know      I   find

G|------ ------ ------ ------|------ ------ ------ ------|
D|5------5------5------5-----|5------5------5------5-----|
A|-------------------------5-|-------------------------5-|
E|---------------------------|---------------------------|
      there,


G|------ ------ ------ ------|------ ------ ------ ------|
D|5------5------5------5-----|5------5------5----------3-|
A|-------------------------5-|------------------2--5-5---|
E|---------------------------|----------------3----------|
      Another road  where  I      could another kind of mind
                       maybe         see

G|------ ------ ------ ------|------ ------ ------ ------|
D|5------5------5------5-----|5------5------5------5-----|
A|-------------------------5-|-------------------------5-|
E|---------------------------|---------------------------|
      there                                            Ooh,


G|------ ------ ------ ------|------ ------ ------ ------|
D|---------------------------|---------------------------|
A|---------------------------|---------------------------|
E|7------7------6------6-----|5------5------4------4-----|
                    and I sud  -  denly  see    you,   ooh,


G|------ ------ ------ ------|------ ------ ------ ------|
D|---------------------------|---------------------------|
A|---------------------------|---------------------------|
E|7------7------6------6-----|5------5------4------4-----|
                    did I tell    you I  need   you


G|------ ------ ------ ------|------ ------ ------ ------|
D|---------------------------|---------------------------|
A|---------------------------|--------------5------5-----|
E|8------8------7------7-----|5------5-------------------|
  Eve -  ry  -  sin -  gle -  day           of     my


G|------ ------ ------ ------|------ ------ ------ ------|
D|5--------------------------|---------------------------|
A|---------------------------|---------------------------|
E|---------------------------|---------------------------|
  life?

Verse:
G|------ ------ ------ ------|------ ------ ------ ------|
D|5------5------5------5-----|5------5------5------5-----|
A|-------------------------5-|-------------------------5-|
E|---------------------------|---------------------------|
      You didn't    you didn't    you knew I wanted  to hold
             run,          lie,                    just

G|------ ------ ------ ------|------ ------ ------ ------|
D|5------5------5------5-----|5------5------5------5-----|
A|-------------------------5-|-------------------------5-|
E|---------------------------|---------------------------|
      you,


G|------ ------ ------ ------|------ ------ ------ ------|
D|5------5------5------5-----|5------5------5----------3-|
A|-------------------------5-|------------------2--5-5---|
E|---------------------------|----------------3----------|
      And had gone, you knew time we'd again,   for  have
           you            in         meet          I    told

G|------ ------ ------ ------|------ ------ ------ ------|
D|5------5------5------5-----|5------5------5------5-----|
A|-------------------------5-|-------------------------5-|
E|---------------------------|---------------------------|
      you                                              Ooh,


G|------ ------ ------ ------|------ ------ ------ ------|
D|---------------------------|---------------------------|
A|---------------------------|-------------------------5-|
E|7------7------6------6-----|5------5------4------4-----|
                    you were      to be  near   me,    ooh,
                           meant

G|------ ------ ------ ------|------ ------ ------ ------|
D|---------------------------|---------------------------|
A|---------------------------|---------------------------|
E|7------7------6------6-----|5------5------4------4-----|
                    and I want    you to hear   me


G|------ ------ ------ ------|------ ------ ------ ------|
D|---------------------------|---------------------------|
A|---------------------------|--------------5------5-----|
E|8------8------7------7-----|5------5-------------------|
  Say    we'll  be     to  -  ge  -  ther   eve -  ry


G|------ ------ ------ ------|------ ------ ------ ------|
D|5--------------------------|---------------------------|
A|---------------------------|---------------------------|
E|---------------------------|---------------------------|
  day

Refrain:
G|------ ------ ------ ------|------ ------ ------ ------|
D|5------5------5------5-----|---------------------------|
A|-------------------------5-|3------3------3------3---3-|
E|---------------------------|---------------------------|
  Got to get you into  my life!


G|------ ------ ------ ------|------ ------ ------ ------|
D|---------------------------|---------------------------|
A|3------3------3------3-----|5--------------------------|
E|---------------------------|---------------------------|



G|------ ------ ------ ------|------ ------ ------ ------|
D|5------5------5------5-----|5------5------5------5-----|
A|-------------------------5-|-------------------------5-|
E|---------------------------|---------------------------|


Verse:
G|------ ------ ------ ------|------ ------ ------ ------|
D|5------5------5------5-----|5------5------5------5-----|
A|---------------------------|-------------------------5-|
E|---------------------------|---------------------------|
      What I do     what I be,    when   with   I  wanna
         can           can           I'm    you,       stay

G|------ ------ ------ ------|------ ------ ------ ------|
D|5------5------5------5-----|5------5------5------5-----|
A|---------------------------|-----------5-------------5-|
E|---------------------------|---------------------------|
      there,


G|------ ------ ------ ------|------ ------ ------ ------|
D|5------5------5------5-----|5------5------5----------3-|
A|-------------------------5-|------------------2--5-5---|
E|---------------------------|----------------3----------|
      If I'm true,  I'll   leave, and if I  do, I know way
                       never                         the

G|------ ------ ------ ------|------ ------ ------ ------|
D|5------5------5------5-----|5------5------5------5-----|
A|-------------------------5-|-------------------------5-|
E|---------------------------|---------------------------|
      there                                            Ooh,


G|------ ------ ------ ------|------ ------ ------ ------|
D|---------------------------|---------------------------|
A|---------------------------|---------------------------|
E|7------7------6------6-----|5------5------4------4---4-|
                    and I sud  -  denly  see    you,   ooh,


G|------ ------ ------ ------|------ ------ ------ ------|
D|---------------------------|---------------------------|
A|---------------------------|---------------------------|
E|7------7------6------6-----|5------5------4------4-----|
                    did I tell    you I  need   you


G|------ ------ ------ ------|------ ------ ------ ------|
D|---------------------------|---------------------------|
A|---------------------------|--------------5------5-----|
E|8------8------7------7-----|5------5-------------------|
  Eve -  ry  -  sin -  gle -  day           of     my


G|------ ------ ------ ------|------ ------ ------ ------|
D|5--------------------------|---------------------------|
A|---------------------------|---------------------------|
E|---------------------------|---------------------------|
  life?

Refrain:
G|------ ------ ------ ------|------ ------ ------ ------|
D|5------5------5------5-----|---------------------------|
A|-------------------------5-|3------3------3------3-----|
E|---------------------------|---------------------------|
  Got to get you into  my life!


G|------ ------ ------ ------|------ ------ ------ ------|
D|---------------------------|---------------------------|
A|3------3------3------3-----|5--------------------------|
E|---------------------------|---------------------------|



G|------ ------ ------ ------|------ ------ ------ ------|
D|5--------------------------|---------------------------|
A|---------------------------|---------------------------|
E|---------------------------|---------------------------|



G|------ ------ ------ ------|------ ------ ------ ------|
D|---------------------------|---------------------------|
A|---------------------------|---------------------------|
E|---------------------------|---------------------------|


Refrain:
G|------ ------ ------ ------|------ ------ ------ ------|
D|5------5------5------5-----|---------------------------|
A|---------------------------|3------3------3------3-----|
E|---------------------------|---------------------------|
  Got to get you into  my life!


G|------ ------ ------ ------|------ ------ ------ ------|
D|---------------------------|---------------------------|
A|3------3------3------3-----|5--------------------------|
E|---------------------------|---------------------------|



G|------ ------ ------ ------|------ ------ ------ ------|
D|---------------------------|---------------------------|
A|---------------------------|---------------------------|
E|3------3------3------3-----|3------3------3------3-----|
                                                I  was
                                                     alone,
Outro:
G|------ ------ ------ ------|------ ------ ------ ------|
D|---------------------------|---------------------------|
A|-------------------------5-|-------------------------5-|
E|3------3------3------3-----|3------3------3------3-----|
      I  took       I  didn't     what would    there,
           a ride,         know      I   find

G|------ ------ ------ ------|------ ------ ------ ------|
D|5------5------5------5-----|5------5------5------5-----|
A|-------------------------5-|-------------------------5-|
E|---------------------------|---------------------------|
                    Another       where  I      could  an-
                           road      maybe         see

G|------ ------ ------ ------|------ ------ ------ ------|
D|5------5------5------5-----|5------5------5------5-----|
A|-------------------------5-|-------------------------5-|
E|---------------------------|---------------------------|
  other  kind of mind there                     And    sud-


G|------ ------ ------ ------|------ ------ ------ ------|
D|5------5------5----------3-|5------5------5----------3-|
A|---------------------5-5---|---------------------5-----|
E|------------------3--------|------------------3--------|
      denly I see   you,                        Did I  tell


G|------ ------ ------ ------|------ ------ ------ ------|
D|5------5------5---3--------|---------------------------|
A|---------------------5---2-|-------------------------5-|
E|---------------------------|3------3------3------3-----|
      you I  need   you                         Eve- ry...
fade...

Please e-mail me for any corrections.
            

comments powered by Disqus
↑ Back to top | Beatles Bass for Got To Get You Into My Life. Lyrics for acoustic guitar and electric guitar. Tablatures and chords are parodies/interpretations of the original songs. You may use it for private study, scholarship, research or language learning purposes only