>
 >
Glass Onion

Glass Onion Bass Tabs

Beatles - Glass Onion chords, tabs, tablatures, lyrics

Guitar lessons | Add/correct | Request | Top 50 tabs Artists:  A B C D E F G H I J K L M N O P Q R S T U V W X Y Z 0-9

Glass Onion Bass Tabs – Beatles

CD, Sheet music, Poster

Do you like Glass Onion? Share with your friends now
Bass TabsBass Tabs v2ChordsChords v2Chords v3TabsTabs v2Tabs v3
GLASS ONION

Written by John Lennon

INTRO

G|---------------------------------|---------------------------------|
D|---------------------------------|-----------------10\-----7\------|
A|---------------------------------|---------------------------------|
E|---------------------------------|---------------------------------|

VERSE

G|---------------------------------|---------------------------------|
D|-7---7---7\--------------7-------|-3-------3-------3-------5-/-7---|
A|-----------------------------7---|---------------------X-----------|
E|---------------------------------|---------------------------------|

G|---------------------------------|---------------------------------|
D|-7---7---7-----------7---7-------|-3-------3-------3---3---5-------|
A|-----------------------------7---|-------------5---------------5---|
E|---------------------------------|---------------------------------|

G|---------------------------------|---------------------------------|
D|-7---7---7\----------7---7-------|-5-------3-------2---------------|
A|-----------------------------5---|-----5---------------5-----------|
E|---------------------------------|---------------------------------|

G|---------------------------------|---------------------------------|
D|---------------------------------|-5-------3-------2---------------|
A|-3-------1-------0---------------|-----5---------------5-----------|
E|---------------------3-------3---|---------------------------------|

G|---------------------------------|
D|---------------------------------|
A|-3-------1-------0---------------|
E|---------------------3---2---1---|

CHORUS

G|---------------------------------|---------------------------------|
D|-3---1---3-------3---1---3-------|-------------------------1---3---|
A|-----------------------------5---|---------5-------5---------------|
E|---------------------------------|---------------------------------|

G|---------------------------------|---------------------------------|
D|-----1---3-------3---1---3-------|-------------------------1---3---|
A|-----------------------------5---|---------5-------5---------------|
E|---------------------------------|---------------------------------|

G|---------------------------------|---------------------------------|
D|-----1---3-------3---1---3---4---|-5---------------5-------6-------|
A|---------------------------------|---------------------5-----------|
E|---------------------------------|---------------------------------|

VERSE

G|---------------------------------|---------------------------------|
D|-7---7---7---7\----------7-------|-3-------3-------3-------5-/-7---|
A|-----------------------------7---|---------------------X-----------|
E|---------------------------------|---------------------------------|

G|---------------------------------|---------------------------------|
D|-7-------7\----------7---7-------|-3-------3-----------5---5-------|
A|-----------------------------7---|-------------5---------------3---|
E|---------------------------------|---------------------------------|

G|---------------------------------|---------------------------------|
D|-7---7---7\----------7---7-------|-5-----------3-------2-----------|
A|-----------------------------5---|-----5-----------------------5---|
E|---------------------------------|---------------------------------|

G|---------------------------------|---------------------------------|
D|---------------------------------|-5-------3-------2---------------|
A|-3-------1-------0---------------|-----5---------------5-----------|
E|---------------------3-------3---|---------------------------------|

G|---------------------------------|
D|---------------------------------|
A|-3-------1-------0---------------|
E|---------------------3---2---1---|

CHORUS

G|---------------------------------|---------------------------------|
D|-3---1---3-------3---1---3-------|-------------------------1---3---|
A|-----------------------------5---|---------5-------5---------------|
E|---------------------------------|---------------------------------|

G|---------------------------------|---------------------------------|
D|-----1---3-------3---1---3-------|-------------------------1---3---|
A|-----------------------------5---|---------5-------5---------------|
E|---------------------------------|---------------------------------|

G|---------------------------------|---------------------------------|
D|-----1---3-------3---1---3---4---|-5-------------------------------|
A|---------------------------------|---------------------------------|
E|---------------------------------|-----------------3-------4-------|

SOLO

G|---------------------------------|---------------------------------|
D|---------------------------------|---------------------------------|
A|---------------------------------|---------------------------------|
E|-5---5---5-----------5-------0---|-5---5---5---0---5---5---5---0---|

G|---------------------------------|---------------------------------|
D|---------------------------------|---------------------------------|
A|---------------------------------|---------------------------------|
E|-5-------5-----------5-----------|-5---0---5-------0---3-------5---|

G|---------------------------------|---------------------------------|
D|---------------------------------|---------------------------------|
A|---------------------------------|---------------------------------|
E|-----0---5-------0---3-------5---|-----0---5---0---5---0---5---0---|

G|---------------------------------|---------------------------------|
D|---------------------------------|---------------------------------|
A|---------------------------------|---------------------------------|
E|-5---0---5-------0---3-------5---|-5---0---5---0---5---0---5---0---|

G|---------------------------------|---------------------------------|
D|---------------------------------|---------------------------------|
A|---------------------------------|---------------------------------|
E|-1-------1-------1-------1-------|-3-------------------------------|

VERSE

G|---------------------------------|---------------------------------|
D|---------------------------------|-3-------3-------3-------5-/-7---|
A|-----------------------------7---|---------------------------------|
E|-5---5---5---5---5---5-----------|---------------------------------|

G|---------------------------------|---------------------------------|
D|-7---7---7\----------------------|-3---3---3-------3-------3---5---|
A|-----------------------------7---|---------------------5-----------|
E|---------------------------------|---------------------------------|

G|---------------------------------|---------------------------------|
D|-7---7---7\----------7---7-------|-5-----------3-------2-----------|
A|-----------------------------5---|-----5-----------------------5---|
E|---------------------------------|---------------------------------|

G|---------------------------------|---------------------------------|
D|---------------------------------|-5-----------3-------2-----------|
A|-3-----------1-------0-----------|-----X-----------------------5---|
E|-------------------------3-------|---------------------------------|

G|---------------------------------|
D|---------------------------------|
A|-3-----------------------2---5---|
E|-----------------3---5-----------|

CHORUS

G|---------------------------------|---------------------------------|
D|-3---1---3-------3---1---3-------|-------------------------1---3---|
A|-----------------------------5---|---------5-------5---------------|
E|---------------------------------|---------------------------------|

G|---------------------------------|---------------------------------|
D|-----1---3-------3---1---3-------|-------------------------1---3---|
A|-----------------------------5---|---------5---5---5---5-----------|
E|---------------------------------|---------------------------------|

G|---------------------------------|---------------------------------|
D|-----1---3-------3---1---3---4---|-5-------------------------------|
A|---------------------------------|---------------------------------|
E|---------------------------------|---------------------------------|

OUTRO

  Contrabass arr. for bass
G|---------5---------------5-------|---------5---------------5-------|
D|-3---------------3---------------|-3---------------3---------------|
A|---------------------------------|---------------------------------|
E|---------------------------------|---------------------------------|

G|---------2---------------2-------|---------2---------------2-------|
D|-0---------------0---------------|-0---------------0---------------|
A|---------------------------------|---------------------------------|
E|---------------------------------|---------------------------------|
                                                  REPEAT AND FADE OUT





Comments


Popular Beatles tabs & chords
Because 2 Chords
From Me To You 3 Chords
Honey Pie Chords
I Wanna Hold Your Hand Chords
Something Chords
All You Need Is Love (Solo) Tabs
Anytime At All Tabs
Boys 1 Tabs
I Am The Walrus Tabs
I Want To Tell You Tabs


Song lyrics



↑ Back to top | Tablatures and chords are parodies/interpretations of the original songs. You may use it for private study, scholarship, research or language learning purposes only
© 2014 AZChords.com Contact us | Privacy policy | DMCA | Add/correct tabs | Request tabs | Top 50 tabs