» » »

Beatles, Getting Better Bass tabs (ver.2)

Artists:  A B C D E F G H I J K L M N O P Q R S T U V W X Y Z # 

Getting Better Bass tabs (ver.2)

Beatles Tabs
 Rating:
4/5 (4 votes)
Getting Better lessons Tabs too difficult? Try these video lessons and learn fast
1
                "     -----------------------------------------------------------

     THE BEATLES - GETTING BETTER (Lennon & McCartney) From SGT. 
                   PEPPER'S LONELY HEARTS CLUB BAND. Released on 
                   June 1st 1967.

     -----------------------------------------------------------

     Bass tab by:PJVillanueva




	

     It's getting better all the time
     I used to get mad at my school
     The teachers who taught me weren't cool
     You're holding me down, turning me round
     Filling me up with your rules.

     I've got to admit it's getting better
     A little better all the time
     I have to admit it's getting better
     It's getting better since you've been mine.

     Me used to be a angry young man
     Me hiding me head in the sand
     You gave me the word
     I finally heard
     I'm doing the best that I can.
     I've got to admit it's getting better
     I used to be cruel to my woman I beat her
     And kept her apart from the things that she loved
     Man I was mean but I'm changing my scene
     And I'm doing the best that I can.

     I admit it's getting better
     A little better all the time
     Yes I admit it's getting better
     It's getting better since you've been mine




      12/8

                                   

    G|------ ------ ------ ------|------ ------ ------ ------|
    D|---------------------------|---------------------------|
    A|---------------------------|---------------------------|
    E|---------------------------|---------------------------|


     

    G|------ ------ ------ ------|------ ------ ------ ------|
    D|---------------------------|---------------------------|
    A|---------------------------|---------------------------|
    E|---------------------------|-------------------------1-/
          It's      better all    time                     I
             getting           the

      00:08

    G|------ ------ 12---- 12-\--|------ ------ 12---- 12-\--|
    D|---------------------------|---------------------------|
    A|---------------------------|---------------------------|
    E|3------3-------------------|3------3-------------------|
      used   get mad   at my  school                      The
          to
                                      No I   can't  complain


    G|------ ------ 12---- 12-\--|------ ------ 12---- 12-\--|
    D|---------------------------|---------------------------|
    A|---------------------------|---------------------------|
    E|3------3-------------------|3------3-------------------|
      teachers   taught me weren't cool                    You're
             who
                                      No I   can't  complain


    G|------ ------ 12---- 12-\--|------ ------ 12---- 12-\--|
    D|---------------------------|---------------------------|
    A|---------------------------|---------------------------|
    E|3------3-------------------|3------3-------------------|
      holding    down             turning    round
             me                          me
                    Aaaaaaaahh                     Aaaaaaaahh


    G|------ ------ 12---- 12-\--|------ ------ ----12 \-----|
    D|---------------------------|-------------/14-----------|
    A|---------------------------|---------------------------|
    E|3------3-------------------|3------3-------------------|
      filling    up     with   rules                       I've
             me            your
                                                Foooooooooooo
 
      00:24

    G|------ ------ ------ ------|------ 5----- ------ ------|
    D|--------------2-/-5--------/7------------/7------5-----|
    A|3------3-------------------|---------------------------|
    E|---------------------------|---------------------------|
      got to admit      it's   better               a  little 
                           getting                         better
      ooooohoooooooools                         Better


    G|------ ------ ------ ------|------ ------ ------ ------|
    D|2------3------5------------|-------2------3------------|
    A|---------------------3-----|5-----------------2--2-----|  
    E|---------------------------|---------------------------|  
                    all    the time                        I
                                      It can't  get no     worse



    G|------ ------ ------ ------|------ 5----- ------ ------|
    D|--------------2---5--------/7-------------7------5-----|
    A|3------3-------------------|---------------------------|
    E|---------------------------|---------------------------|
      have   admit      it's   better               it's   better
          to               getting                     getting
                                                Better


    G|------ ------ ------ ------|------ ------ ------ ------|
    D|2------3------5------------|-------2------3------------|
    A|---------------------3-----|5-----------------x--3-----|
    E|---------------------------|---------------------------| 
                           since         been 
                               you've        mine

     

    G|------ ------ ------ 12-\--|------ ------ 12---- 12-\--|
    D|---------------------------|---------------------------|
    A|---------------------------|---------------------------|
    E|3------3------3------------|3------3-------------------|
                                                           Me


      00:44

    G|------ ------ 12---- 12-\--|------ -----10121012 12-\--|
    D|---------------------------|--------------H---H--------|
    A|---------------------------|---------------------------|
    E|3------3-------------------|3------3-------------------|
      used   be  angry     young                           Me
          to                   man



    G|------ ------ 10121012-1012\------ ------ --1012 12-\--|
    D|----------------H-P-H----H-|------------------H--------|
    A|---------------------------|---------------------------|
    E|3------3-------------------|3------3-------------------|
      hiding me  head   in the sand                        You





    G|------ ------ 10121012-12\-|------ ------ 10121012-12-\|
    D|----------------H-P-H------|----------------H-P-H------|
    A|---------------------------|---------------------------|
    E|3------3-------------------|3------3-------------------|
      gave   the word          I  finally    heard         I'm
          me



    G|------ ------ 101212 1012--|1012-\ ------ ----12 12----|
    D|----------------H------H---|--H----------/14-----------|
    A|---------------------------|---------------------------|
    E|3------3-------------------|-------3-------------------|
       doing the best   that   can                         I've
                           I


      01:00

    G|------ ------ ----5- ------|5----- ------ ------ ------|
    D|-----------2-/7------------|---------------------------|
    A|3--------------------------|------------------7--------|
    E|---------------------------|---------------------------|
      got to admit      it's   better               a  little 
                           getting                         better
                                                Better



    G|------ ------ ------ ------|------ ------ ------ ------|
    D|5--------------------------|3--------------------------|
    A|------------------5--------|------------------2------2-/
    E|---------------------------|---------------------------|
                    all    the time                        I
                                      It can't  get no     worse


      01:07

    G|------ ------ ----5- ------|5----- ------ ------ ------|
    D|-------2----/-7------------|---------------------------|
    A|3--------------------------|------------------7--------|
    E|---------------------------|---------------------------|
      have   admit      it's   better               it's   better
          to               getting                     getting
                                                Better


    G|------ ------ ------ ------|------ ------ ------ ------|
    D|5--------------------------|3--------------------------|
    A|------------------5--------|------------------3--------|
    E|---------------------------|---------------------------|
                           since         been 
                               you've        mine


      01:15

    G|------ ------ ------ ------|------ ------ ------ ------|
    D|3------2------3------2-----|3------2------3------3-----|
    A|---------------------------|------------------0--------|
    E|---------------------------|---------------------------|
      Getting       so     much   better        all    the time




    G|------ ------ ----5- ------|5----- ------ ------ ------|
    D|-------2---x-/7--------7---|---------------------------|
    A|3--------------------------|------------------7--------|
    E|---------------------------|---------------------------|
          it's      better all    time 
             getting           the


      01:23

    G|------ ------ ------ ------|------ ------ ------ ------|
    D|5------------------------2-|3-----------------2--------|
    A|------------------5--------|---------------------------|
    E|---------------------------|---------------------------|
      Better        better        better




    G|------ ------ ----5- ------|5----- ------ ------ ------|
    D|-------2----/-7--------7---|------------------2------3-|
    A|3--------------------------|---------------------------|
    E|---------------------------|---------------------------|
          it's      better all    time 
             getting           the



    G|------ ------ ------ ------|------ ------ ------ ------|
    D|5------------------------2-|3-----------------2--------|
    A|------------------5--------|---------------------------|
    E|---------------------------|-------------------------1-/
      Better        better        better


             x   x         X             x   x         X

    G|------ ------ ------ ------|------ ------ ------ ------|
    D|---------------------------|---------------------------|
    A|---------------------------|---------------------------|
    E|3--------------------------|---------------------------|
                                                           I

             
      01:39  x   x         X             x   x         X

    G|------ ------ ------ ------|------ ------ ------ ------|
    D|---------------------------|---------------------------|
    A|---------------------------|---------------------------|
    E|---------------------------|---------------------------|
      used   be cruel   to my  woman     I   beat      and kept 
          to                                        her

             x   x         X             x   x         X

    G|------ ------ ------ ------|------ ------ ------ ------|
    D|---------------------------|---------------------------|
    A|---------------------------|---------------------------|
    E|---------------------------|---------------------------|
          her           from   things that   loved
             apart         the           she


      01:47                                          

    G|------ ----12 12---- 12-\--|------ ------ 1012-- 12-\--|
    D|---------------------------|----------------H----------|
    A|---------------------------|---------------------------|
    E|3------3-------------------|3------3-------------------|
                                  Man I  was mean   but    changing
                                                       I'm 



    G|------ ----12 12--12 12-\--|------ ------ 12---- 12-\--|
    D|---------------------------|---------------------------|
    A|---------------------------|---------------------------|
    E|3------3-------------------|3------3-------------------|
             my  scene  and    doing     the best   that   can
                           I'm    



    G|------ ------/12--12 12-\--|    
    D|---------------------------|
    A|---------------------------|
    E|3------3-------------------|
                    OooooooooooHo


      01:56

    G|------ ------ ----5- ------|5----- ------ ------ ------|
    D|------------/-7------------|---------------------------|
    A|3--------------------------|------------------7--------|
    E|---------------------------|---------------------------|
          I  admit     it's    better               a  little 
                           getting                         better
      oooooooooohh                              Better


    G|------ ------ ------ ------|------ ------ ------ ------|
    D|5------------------------2-|3--------------------------|
    A|------------------5--------|------------------2--------|
    E|---------------------------|---------------------------|
                    all    the time                        Yes,
                                      It can't  get no     worse


      02:04

    G|------ ------ ----5- ------|5----- ------ ------ ------|
    D|-------2----/-7----------7-|---------------------------|
    A|3--------------------------|------------------7--------|
    E|---------------------------|---------------------------|
          I  admit     it's    better               a  little 
                           getting                         better
                                                Better


    G|------ ------ ------ ------|------ ------ ------ ------|
    D|5------------------------2-|3-----------------2------0-|
    A|------------------5--------|---------------------------|
    E|---------------------------|---------------------------|
                           since         been 
                               you've        mine


      02:12

    G|------ ------ ------ ------|------ ------ ------ ------|
    D|3------2------3------2-----|3--------------------------|
    A|---------------------------|--------------0------2-----|
    E|---------------------------|-------3-------------------|
      Getting       so     much   better        all    the time 




    G|------ ------ ----5- ------|5----- ----5- ------ ------|
    D|-------2----/-7----------7-|---------------------------|
    A|3--------------------------|------------------7--------|
    E|---------------------------|---------------------------|
          it's      better all    time 
             getting           the


      02:20

    G|------ ------ ------ ------|------ ------ ------ ------|
    D|5------------------------2-|3--------------------------|
    A|------------------5--------|------------------2--------|
    E|---------------------------|-------------------------3-|
      Better        better        better



    G|------ ------ ----5- ------|5----- ----5- ------ ------|
    D|--------------7------------|---------------------------|
    A|3----/-7-------------------|------------------7--------|
    E|---------------------------|---------------------------|
          it's      better all    time 
             getting           the



    G|------ ------ ------ ------|------ ------ ------ ------|
    D|5------------------------2-|3-----------------2------0-|
    A|------------------5--------|---------------------------|
    E|---------------------------|---------------------------|
      Better        better        better


      02:31

    G|------ ------ ------ ------|------ ------ ------ ------|
    D|3------2------3------2-----|3--------------------------|
    A|---------------------------|--------------0------2-----|
    E|---------------------------|-------3-------------------|
      Getting       so     much   better        all    the time



             x   x         X           X x   x         X

    G|------ ------ ------ ------|------ ------ ------ ------|
    D|---------------------------|---------------------------|
    A|3--------------------------|---------------------------|
    E|---------------------------|---------------------------|


             x   x         X             x   x         X

    G|------ ------ ------ ------|------ ------ ------ ------|
    D|---------------------------|---------------------------|
    A|---------------------------|---------------------------|
    E|---------------------------|---------------------------|
      ....................... Fade out ......................

             x   x         X           

    G|------ ------ ------ ------|------ ------ ------ ------|
    D|---------------------------|---------------------------|
    A|---------------------------|---------------------------|
    E|---------------------------|---------------------------|
      ..................................







        B  Bend
        R  Release
        /  slide up
        \  slide down
        H  hammer-on
        P  pull-off
        ~  vibrato
        +  harmonic
        x  Mute note
        . - play note like a dot in standard notation
        ^ - ties two notes together
        (. Pause
"            
Submit corrections

comments powered by Disqus
↑ Back to top | Beatles Bass for Getting Better. Lyrics for acoustic guitar and electric guitar. 1 Tablatures and chords are parodies/interpretations of the original songs. You may use it for private study, scholarship, research or language learning purposes only