» » »

Beatles, Free As A Bird Bass tabs (ver.2)

Artists:  A B C D E F G H I J K L M N O P Q R S T U V W X Y Z # 

Free As A Bird Bass tabs (ver.2)

Beatles Tabs
 Rating:
4/5 (4 votes)
Free As A Bird lessons Tabs too difficult? Try these video lessons and learn fast
                FREE AS A BIRD

By John Lennon
Arr. By Paul McCartney, George Harrison & Ringo Starr

INTRO

G|---------------------------------|---------------------------------|
D|---------------------------------|---------------------------------|
A|-0-------------------------------|---------------------------------|
E|-----------------2---------------|-1---------------0-------0-------|

G|---------------------------------|---------------------------------|
D|-----------------4---------------|---------------------------------|
A|-0-----------4-------------------|-5---------------7---------------|
E|---------------------------------|---------------------------------|

G|---------------------------------|---------------------------------|
D|-----------------4---------------|-----------------5---------------|
A|-0-----------4-----------7-------|-5-------------------------------|
E|---------------------------------|-------------------------3-------|

G|---------------------------------|---------------------------------|
D|---------------------------------|-2---2---2---2-------------------|
A|-3-----------2---0-----------0---|---------------------------------|
E|---------------------------------|-----------------0---------------|

VERSE

G|---------------------------------|---------------------------------|
D|---------------------------------|---------------------------------|
A|-0-------------------------------|---------------------------------|
E|-----------------2---------------|-1---------------0-----------0---|

G|---------------------------------|---------------------------------|
D|-------------2---4-----------2---|-0---------------2-------2-------|
A|-0-------4-----------------------|---------------------------------|
E|---------------------------------|---------------------------------|

G|---------------------------------|---------------------------------|
D|-----------------4-----------2---|-0-----------0---5---------------|
A|-0-------------------------------|---------------------------------|
E|---------------------------------|-------------------------3-------|

G|---------------------------------|---------------------------------|
D|---------------------------------|-2---2---2---2-------------------|
A|-3-------3---2---0---------------|---------------------------------|
E|---------------------------------|-----------------0-------0-------|

VERSE

G|---------------------------------|---------------------------------|
D|---------------------------------|---------------------------------|
A|-0-------------------------------|---------------------------------|
E|-----------------2---------------|-1---------------0-------0-------|

G|---------------------------------|---------------------------------|
D|-------------2---4-----------2---|-0---------------2-------2-------|
A|-0-------------------------------|---------------------------------|
E|---------------------------------|---------------------------------|

G|---------------------------------|---------------------------------|
D|---------------------------------|-0-----------0---5-------5-------|
A|-0-----------0-------------------|---------------------------------|
E|-----------------2-----------0---|---------------------------------|

G|---------------------------------|---------------------------------|
D|---------------------------------|-2---2---2---2-------------------|
A|-3-----------2---0-----------0---|---------------------------------|
E|---------------------------------|-----------------0-------0-------|

BRIDGE

G|---------------------------------|---------------------------------|
D|---------------------------------|---------------------------------|
A|---------------------------------|---------------------------------|
E|-1---1---1---1---1---1---1---1---|-2---2---2---2---2---2---2---2---|

G|---------------------------------|---------------------------------|
D|---------------------------------|---------------------------------|
A|---------------------------------|-0---0---0---0-------------------|
E|-3---3---3---3---3---3---3---3---|-----------------3---3---3---3---|

G|---------------------------------|---------------------------------|
D|---------------------------------|---------------------------------|
A|---------------------------------|---------------------------------|
E|-1-------1---1---1---1---1---1---|-2---2---2---2---2---2---2---2---|

G|---------------------------------|---------------------------------|
D|---------------------------------|-2---2---2---2-------------------|
A|---------------------------------|---------------------------------|
E|-3---3---3---3---3---3---3---3---|-----------------0-------0-------|

VERSE

G|---------------------------------|---------------------------------|
D|---------------------------------|---------------------------------|
A|-0-----------0-------------------|---------------------------------|
E|-----------------2---------------|-1-----------1---0-------0-------|

G|---------------------------------|---------------------------------|
D|-----------------4-------2-------|-0-----------0---2-------2-------|
A|-0-------4-----------------------|---------------------------------|
E|---------------------------------|---------------------------------|

G|---------------------------------|---------------------------------|
D|-----------------4-----------2---|-0-----------0---5---------------|
A|-0-----------4-------------------|---------------------------------|
E|---------------------------------|-------------------------3-------|

G|---------------------------------|---------------------------------|
D|---------------------------------|-2---2---2---2-------------------|
A|-3-----------2---0---------------|---------------------------------|
E|---------------------------------|-----------------0-------0-------|

VERSE

G|---------------------------------|---------------------------------|
D|---------------------------------|---------------------------------|
A|-0-----------0-------------------|---------------------------------|
E|-----------------2-----------2---|-1-----------1---0-------0-------|

G|---------------------------------|---------------------------------|
D|---------------2-4-----------2---|-0---------------2-------2-------|
A|-0-----------4-------------------|---------------------------------|
E|---------------------------------|---------------------------------|

G|---------------------------------|---------------------------------|
D|-----------------4-----------2---|-0-----------0---5---------------|
A|-0-------------------------------|---------------------------------|
E|---------------------------------|-------------------------3-------|

G|---------------------------------|---------------------------------|
D|---------------------------------|---------------------------------|
A|-3-----------2---0---------------|---------------------------------|
E|---------------------------------|-0-----------0---3-----------3---|

BRIDGE

G|---------------------------------|---------------------------------|
D|---------------------------------|---------------------------------|
A|---------------------------------|---------------------------------|
E|-1---1---1---1---1---1---1---1---|-2---2---2---2---2---2---2---2---|

G|---------------------------------|---------------------------------|
D|---------------------------------|-----2-------2-------------------|
A|---------------------------------|---------------------------------|
E|-3---3---3---3---3---3---3---3---|-0---------------0-------0-------|

GUITAR SOLO

G|---------------------------------|---------------------------------|
D|---------------------------------|---------------------------------|
A|-3-------------------------------|---------------------------------|
E|---------0---3---5-----------5---|-4-----------4---3-------3-------|

G|---------------------------------|---------------------------------|
D|---------------------------------|---------------------------------|
A|-3-------------------------------|---------------------------------|
E|---------0---3---5-----------3---|-1-----------1---3-------3-------|

G|---------------------------------|---------------------------------|
D|---------------------------------|---------------------------------|
A|-3-------------------------------|---------------------------------|
E|---------0---3---5-----------3---|-1-----------1---3-------3-------|

VERSE

G|---------------------------------|---------------------------------|
D|---------------------------------|---------------------------------|
A|-0---0---------------------------|---------------------------------|
E|-----------------2-----------2---|-1-----------1---0-------0-------|

G|---------------------------------|---------------------------------|
D|-------------2---4-----------2---|-0-----------0---2-------2-------|
A|-0-------4-----------------------|---------------------------------|
E|---------------------------------|---------------------------------|

G|---------------------------------|---------------------------------|
D|-----------------4-------2-------|-0-----------0---5-------5-------|
A|-0-------4-----------------------|---------------------------------|
E|---------------------------------|---------------------------------|

OUTRO

G|---------------------------------|---------------------------------|
D|---------------------------------|-0-----------0---5---------------|
A|-0-----------0-------------------|---------------------------------|
E|-----------------2-----------2---|-------------------------3-------|

G|---------------------------------|---------------------------------|
D|---------------------------------|-0-----------0---5-------5-------|
A|-0-----------0-------------------|---------------------------------|
E|-----------------2-----------0---|---------------------------------|

G|---------------------------------|---------------------------------|
D|---------------------------------|-0-----------0---5---------------|
A|-0-------0-----------------------|---------------------------------|
E|-------------4---2-----------0---|-------------------------3-------|

G|---------------------------------|---------------------------------|
D|---------------------------------|---------------------------------|
A|-0-------------------------------|---------------------------------|
E|---------------------------------|---------------------------------|

G|---------------------------------|---------------------------------|
D|---------------------------------|---------------------------------|
A|---------------------------------|---------------------------------|
E|---------------------------------|---------------------------------|

G|---------7/9---------------------|---------7/9---------------------|
D|-7-----------5-------------------|-7-----------5-------------------|
A|---------------------------------|---------------------------------|
E|---------------------------------|---------------------------------|

G|---------7/9---------------------|---------7/9---------------------|
D|-------------5-------------------|-------------5-------------------|
A|-0-------------------------------|-0-------------------------------|
E|---------------------------------|---------------------------------|
            
Submit corrections

comments powered by Disqus
↑ Back to top | Beatles Bass for Free As A Bird. Lyrics for acoustic guitar and electric guitar. Tablatures and chords are parodies/interpretations of the original songs. You may use it for private study, scholarship, research or language learning purposes only