» » »

Beatles, Devil In Her Heart Bass tabs (ver.3)

Artists:  A B C D E F G H I J K L M N O P Q R S T U V W X Y Z # 

Devil In Her Heart Bass tabs (ver.3)

Beatles Tabs
 Rating:
4/5 (4 votes)
Devil In Her Heart lessons Tabs too difficult? Try these video lessons and learn fast
                Devil In Her Heart
The Beatles
Written by Richard B. Drapkin, released on "With The Beatles" album

Nice song, I like the "dialogue" between the lead (George) and the backers 
(John and Paul).

Intro:
G|------- ------- ------- -------|------- ------- ------- -------|
D|-------------------------------|-------------------------------|
A|-------------------------------|-------------------------------|
E|-------------------------------|-------------------------------|



G|------- ------- ------- -------|------- ------- ------- -------|
D|7-----------7---7--------------|-------------------------------|
A|-------------------------------|5-----------5---5--------------|
E|-------------------------------|-------------------------------|



G|------- ------- ------- -------|------- ------- ------- -------|
D|5-----------5---------------4--|5------------------------------|
A|----------------5-------5------|-------------------------------|
E|-------------------------------|-------------------------------|
                                      She's   the de- vil in  her
                                          got
Refrain:
G|------- ------- ------- -------|------- ------- ------- -------|
D|7-----------7---7--------------|----------------------------4--|
A|-------------------------------|5-----------5---5---5---7------|
E|-------------------------------|-------------------------------|
                                          But eyes,   they tanta-
  heart!

G|------- ------- ------- -------|------- ------- ------- -------|
D|5-----------5---------------4--|5-----------5-----------5------|
A|----------------5-------5------|----------------5--------------|
E|-------------------------------|-------------------------------|
  lize
                                      She's gonna tear    heart a-
                                                      your
G|------- ------- ------- -------|------- ------- ------- -------|
D|7-----------7---7--------------|------------4---7-----------4--|
A|-------------------------------|5-------------------5---7------|
E|-------------------------------|-------------------------------|
                                          Oh, her lips,   really
                                                      they
  part!
G|------- ------- ------- -------|------- ------- ------- -------|
D|5-----------5---------------4--|5-------5---5---7---7---9---9--|
A|----------------5-------5------|-------------------------------|
E|-------------------------------|-------------------------------|
  thrill          me

Verse:
G|------- ------- ------- -------|------- ------- ------- -------|
D|----------------5-------5------|----------------5--------------|
A|-------------------------------|----------------------------7--|
E|8-----------8---------------8--|8-----------8-----------8------|
      I'll    my  chan -  ces,            for ro- mance   is
          take
  Aaaaaaaaaaaaaaaaaaaaaaaaaaaaaaaaaaaaaaaaaaaaaaaaaaaaaaaaaaaaaaa
G|------- ------- ------- -------|------- ------- ------- -------|
D|5-----------5---------------4--|5-------5-------7---7---9---9--|
A|----------------5-------5------|-------------------------------|
E|-------------------------------|-------------------------------|
          so  im- portant     to  me
  aaaaaaaaaaaaaaaaaaaaaaaaaaaaaaaaaaaaaaaa

G|------- ------- ------- -------|------- ------- ------- -------|
D|------------5---5--------------|------------5---5--------------|
A|-------------------------------|-------------------------------|
E|8------------------------------|8---------------------------8--|
      She'll      hurt    me,         she won't           me,
          ne- ver                             de- sert
  Aaaaaaaaaaaaaaaaaaaaaaaaaaaaaaaaaaaaaaaaaaaaaaaaaaaaaaaaaaaaaaa
G|------- ------- ------- -------|------- ------- ------- -------|
D|7-----------7-----------7------|----------------7-------7------|
A|----------------7--------------|5-----------5------------------|
E|-------------------------------|----------------------------8--|
          she's   an- gel sent to me!
              an

G|------- ------- ------- -------|
D|-------------------------------|
A|5------------------------------|
E|-------------------------------|
      She's   the de- vil in  her
          got
Refrain:
G|------- ------- ------- -------|------- ------- ------- -------|
D|7-----------7---7--------------|------------4---7-----------4--|
A|-------------------------------|5-------------------5---7------|
E|-------------------------------|-------------------------------|
                      No,         no,         no, this I can't be-
  heart!

G|------- ------- ------- -------|------- ------- ------- -------|
D|5-----------5---------------4--|5-----------5-----------5------|
A|----------------5-------5------|----------------5--------------|
E|-------------------------------|-------------------------------|
  lieve
                                      She's gonna tear    heart a-
                                                      your
G|------- ------- ------- -------|------- ------- ------- -------|
D|7------------------------------|------------4---7-----------4--|
A|----------------7-----------7--|5-------------------5---7------|
E|------------8-----------8------|-------------------------------|
                                       No,   no,  nay will she de-
  part!

G|------- ------- ------- -------|------- ------- ------- -------|
D|5-----------5---------------4--|5-------5---5---7---7---9---9--|
A|----------------5-------5------|-------------------------------|
E|-------------------------------|-------------------------------|
  ceive

Verse:
G|------- ------- ------- -------|------- ------- ------- -------|
D|------------5---5--------------|------------5---5--------------|
A|-------------------------------|----------------------------5--|
E|8------------------------------|8------------------------------|
      I   can't believe   that    ever,   ever
                              she'll          go,
  Aaaaaaaaaaaaaaaaaaaaaaaaaaaaaaaaaaaaaaaaaaaaaaaaaaaaaaaaaaaaaaa
G|------- ------- ------- -------|------- ------- ------- -------|
D|5-----------5---------------4--|5-------5---5---7---7---9---9--|
A|----------------5--------------|-------------------------------|
E|-------------------------------|-------------------------------|
      not when she hugs   me, and says    loves   so
                                      she     me
  aaaaaaaaaaaaaaaaaaaaaaaaaaaaaaaaaaaaaaaa
G|------- ------- ------- -------|------- ------- ------- -------|
D|------------5---5--------------|------------5---5-----------5--|
A|-------------------------------|-------------------------------|
E|8---------------------------8--|8-----------------------8------|
      She'll      hurt    me,         she won't           me,
          ne- ver                             de- sert
  Aaaaaaaaaaaaaaaaaaaaaaaaaaaaaaaaaaaaaaaaaaaaaaaaaaaaaaaaaaaaaaa
G|------- ------- ------- -------|------- ------- ------- -------|
D|7-----------7-----------7------|----------------7-------7------|
A|----------------7--------------|5-----------5------------------|
E|-------------------------------|----------------------------8--|
          listen, can't   you     see?


G|------- ------- ------- -------|
D|-------------------------------|
A|5------------------------------|
E|-------------------------------|
      She's   the de- vil in  her
          got
Refrain:
G|------- ------- ------- -------|------- ------- 7------ -------|
D|7-----------7---7--------------|------------7---------------4--|
A|-------------------------------|5-------------------5---7------|
E|-------------------------------|-------------------------------|
              Oh, no,     no,     no,         no, this I can't be-
  heart!

G|------- ------- ------- -------|------- ------- ------- -------|
D|5-----------5---------------4--|5-----------5-----------5------|
A|----------------5-------5------|----------------5--------------|
E|-------------------------------|-------------------------------|
  lieve
                                      She's gonna tear    heart a-
                                                      your
G|------- ------- ------- -------|------- ------- 7------ -------|
D|7-----------7---7--------------|------------7---------------4--|
A|-------------------------------|5-------------------5---7------|
E|-------------------------------|-------------------------------|
                                       No,   no,  nay will she de-
  part!

G|------- ------- ------- -------|------- ------- ------- -------|
D|5-----------5---------------4--|5-------5---5---7---7---9---9--|
A|----------------5-------5------|-------------------------------|
E|-------------------------------|-------------------------------|
  ceive

Verse:
G|------- ------- ------- -------|------- ------- ------- -------|
D|----------------5-------5------|----------------5--------------|
A|-------------------------------|----------------------------5--|
E|8-----------8---------------8--|8-----------8-----------8------|
          Don't   chan    ces,        if your ro- mance   is
              take

G|------- ------- ------- -------|------- ------- ------- -------|
D|5-----------5---------------4--|5-------5---5---7---7---9---9--|
A|----------------5-------5------|-------------------------------|
E|-------------------------------|-------------------------------|
          so  im- portant     to  you!


G|------- ------- ------- -------|------- ------- ------- -------|
D|------------5---5--------------|------------5---5--------------|
A|-------------------------------|-------------------------------|
E|8------------------------------|8-----------------------8------|
      She'll      hurt    me,         she won't           me,
          ne- ver                             de- sert
  Aaaaaaaaaaaaaaaaaaaaaaaaaaaaaaaaaaaaaaaaaaaaaaaaaaaaaaaaaaaaaaa
G|------- ------- ------- -------|------- ------- ------- -------|
D|7-----------7-----------7------|----------------7-------7------|
A|----------------7--------------|5-----------5------------------|
E|-------------------------------|----------------------------8--|
          she's   an- gel sent to me!
              an

G|------- ------- ------- -------|
D|-------------------------------|
A|5------------------------------|
E|-------------------------------|
      She's   the de- vil in  her
          got
Refrain:
G|------- ------- ------- -------|------- ------- 7------ -------|
D|7-----------7---7--------------|------------7---------------4--|
A|-------------------------------|5-------------------5---7------|
E|-------------------------------|-------------------------------|
              Oh, no,     no,     no,         no, this I can't be-
  heart!

G|------- ------- ------- -------|------- ------- ------- -------|
D|5-----------5---------------4--|5-----------5-----------5------|
A|----------------5-------5------|----------------5--------------|
E|-------------------------------|-------------------------------|
  lieve
                                      She's gonna tear    heart a-
                                                      your
G|------- ------- ------- -------|------- ------- 7------ -------|
D|7-----------7---7--------------|------------7---------------4--|
A|-------------------------------|5-------------------5---7------|
E|-------------------------------|-------------------------------|
                                       No,   no,  nay will she de-
  part!

G|------- ------- ------- -------|------- ------- ------- -------|
D|5-----------5------------------|5-----------5-----------5------|
A|----------------5-------5------|----------------5--------------|
E|-------------------------------|-------------------------------|
  ceive
                                      She's   the de- vil in  her
Outro:                                    got
G|------- ------- ------- -------|------- ------- ------- -------|
D|7-----------7---7--------------|------------4---7--------------|
A|-------------------------------|5-----------------------5------|
E|-------------------------------|-------------------------------|
                                      No, she's   an- gel sent to
                                              an
  heart!
G|------- ------- ------- -------|------- ------- ------- -------|
D|5-----------5---------------4--|5-----------5-----------5------|
A|----------------5--------------|----------------5---5----------|
E|-------------------------------|-------------------------------|
  me!
                                      She's   the de- vil in  her
                                          got
G|------- ------- ------- -------|------- ------- ------- -------|
D|7-----------7-----------7------|------------4---7-----------4--|
A|----------------7--------------|5-------------------5---7------|
E|-------------------------------|-------------------------------|
                                      No, she's   an- gel sent to
                                              an
  heart!
G|------- ------- ------- -------|------- 7------ ------- -------|
D|5-----------5---------------4--|5------------------------------|
A|----------------5--------------|----------------9-/-10---------|
E|-------------------------------|-------------------------------|
  me!

Please e-mail me for any corrections, or write a comment.
            
Submit corrections

comments powered by Disqus
↑ Back to top | Beatles Bass for Devil In Her Heart. Lyrics for acoustic guitar and electric guitar. Tablatures and chords are parodies/interpretations of the original songs. You may use it for private study, scholarship, research or language learning purposes only