>
 >
Dear Prudence

Dear Prudence Bass Tabs

Beatles - Dear Prudence chords, tabs, tablatures, lyrics

Guitar lessons | Add/correct | Request | Top 50 tabs Artists:  A B C D E F G H I J K L M N O P Q R S T U V W X Y Z 0-9

Dear Prudence Bass Tabs – Beatles

CD, Sheet music, Poster

Do you like Dear Prudence? Share with your friends now
Bass TabsBass Tabs v2ChordsChords v2TabsTabs v2Tabs v3
      --------------------------------------------------------------

                       THE BEATLES - DEAR PRUDENCE
                               John Lennon
           From THE WHITE ALBUM, released on November 22nd 1968

      --------------------------------------------------------------







     INTRO


  G|---------------------------------|---------------------------------|
  D|---------------------------------|---------------------------------|
  A|---------------------------------|---------------------------------|
  E|---------------------------------|---------------------------------|





  G|---------------------------------|---------------------------------|
  D|---------------------------------|---------------------------------|
  A|---------------------------------|---------------------------------|
  E|---------------------------------|---------------------------------|





  G|---------------------------------|---------------------------------|
  D|---------------------------------|---------------------------------|
  A|---------------------------------|---------------------------------|
  E|---------------------------------|---------------------------------|





     VERSE
     00:17

  G|---------------------------------|---------------------------------|
  D|-----------------12--------------|-----------------12--------------|
  A|---------------------------------|---------------------------------|
  E|---------------------------------|---------------------------------|





  G|---------------------------------|---------------------------------|
  D|-----------------12--------------|-----------------12--------------|
  A|---------------------------------|---------------------------------|
  E|---------------------------------|---------------------------------|





  G|---------------------------------|---------------------------------|
  D|-----------------12--------------|-----------------12--------------|
  A|---------------------------------|---------------------------------|
  E|---------------------------------|---------------------------------|





  G|---------------------------------|---------------------------------|
  D|-----------------12--------------|-----------------12--------------|
  A|---------------------------------|---------------------------------|
  E|---------------------------------|---------------------------------|





     CHORUS
     00:44

  G|---------------------------------|---------------------------------|
  D|-7-------0--/12--10------0--/10--|-9-------0--/9---8-------0--/8---|
  A|---------------------------------|---------------------------------|
  E|---------------------------------|---------------------------------|





  G|---------------------------------|---------------------------------|
  D|-7-------0--/12--10--------------|---------2-----------------------|
  A|-------------------------5---4---|-3---5-------3-----------2---3---|
  E|---------------------------------|-----------------3---5-----------|





  G|---------------------------------|---------------------------------|
  D|---------------------------------|---------------------------------|
  A|-5-------------------------------|---------------------------------|
  E|---------------------------------|---------------------------------|





     VERSE
     01:03

  G|---------------------------------|---------------------------------|
  D|-7---7---0--/12--10--10-----/10--|-9---9------/9---8---8---0--/8---|
  A|---------------------------------|---------------------------------|
  E|---------------------------------|---------------------------------|





  G|---------------------------------|---------------------------------|
  D|-7---7---0--/12--10--10--0--/10--|-9---9---0--/9---8---8---0--/8---|
  A|---------------------------------|---------------------------------|
  E|---------------------------------|---------------------------------|





  G|---------------------------------|---------------------------------|
  D|-7---7---0--/12--10--10--0--/10--|-9---9------/9---8---8---0--/8---|
  A|---------------------------------|---------------------------------|
  E|---------------------------------|---------------------------------|





  G|---------------------------------|---------------------------------|
  D|-7---7---0--/12--10--10-----/10--|-9---9------/9---8---8------/8---|
  A|---------------------------------|---------------------------------|
  E|---------------------------------|---------------------------------|





     CHORUS
     01:29

  G|---------------------------------|---------------------------------|
  D|---------------------------------|---------------------------------|
  A|-5---5-------5---3---3-------3---|-2---2-------2---1---1-------3---|
  E|---------------------------------|---------------------------------|





  G|---------------------------------|---------------------------------|
  D|-----------------4---------------|---------------------------------|
  A|-5---5---5---7-------5---7---5---|-3-----------3---2-----------2---|
  E|---------------------------------|---------------------3---5-------|





  G|---------------------------------|---------------------------------|
  D|---------------------------------|---------------------------------|
  A|-5-------------------------------|---------------------------------|
  E|---------------------------------|---------------------------------|





     INTERLUDE
     01:47

  G|-----7-------7-------7-------7---|-----7-------7-------7-------7---|
  D|-7---------------7---------------|-7---------------7---------------|
  A|---------5---------------5-------|---------5---------------5-------|
  E|---------------------------------|---------------------------------|





  G|-----7-------7-------7-------7---|-----7-------7-------7-------7---|
  D|-7---------------7---------------|-7---------------7---------------|
  A|---------5---------------5-------|---------5---------------5-------|
  E|---------------------------------|---------------------------------|





  G|---------------------------------|-----------------|
  D|-3---3---3-------6---6---6-------|-5---5---5---7---|
  A|---------------------------------|-----------------|
  E|---------------------------------|-----------------|





  G|---------------------------------|---------------------------------|
  D|---------------------------------|---------------------------------|
  A|-5-------------------------------|---------------------------------|
  E|---------------------------------|---------------------------------|





     VERSE
     02:12

  G|---------------------------------|---------------------------------|
  D|-7---7---0--/12--10--10--0--/10--|-9---9------/9---8---8---0--/8---|
  A|---------------------------------|---------------------------------|
  E|---------------------------------|---------------------------------|





  G|---------------------------------|---------------------------------|
  D|-7---7---0--/12--10--10-----/10--|-9---9------/9---8---8---0--/8---|
  A|---------------------------------|---------------------------------|
  E|---------------------------------|---------------------------------|





  G|---------------------------------|---------------------------------|
  D|-7---7---0--/12--10--10--0--/10--|-9---9------/9---8---8------/8---|
  A|---------------------------------|---------------------------------|
  E|---------------------------------|---------------------------------|





  G|---------------------------------|---------------------------------|
  D|-7---7------/12--10--10-----/10--|-9---9------/9---8---8---0--/8---|
  A|---------------------------------|---------------------------------|
  E|---------------------------------|---------------------------------|





     CHORUS
     02:37

  G|---------------------------------|---------------------------------|
  D|---------------------------------|---------------------------------|
  A|-5---5-------5---3---3---3---3---|-2---2---4---2---1---1---1---3---|
  E|---------------------------------|---------------------------------|





  G|---------------------------------|---------------------------------|
  D|---------------------------------|---------------------------------|
  A|-5---5---5---0-----------2---5---|-3-----------3---2-----------2---|
  E|-----------------3---5-----------|---------------------3---5-------|





     OUTRO
     02:49

  G|---------------------------------|---------------------------------|
  D|---------------------------------|---------------------------------|
  A|-5---------------3---3-------3---|-2-----------2---1---1---1---3---|
  E|---------------------------------|---------------------------------|





  G|---------------------------------|---------------------------------|
  D|---------------------------------|---------------------------------|
  A|-5-----------5---3---3-----------|-2-----------2---1---1-------3---|
  E|---------------------------------|---------------------------------|





  G|---------------------------------|---------------------------------|
  D|---------------------------------|---------------------------------|
  A|-5-----------5---3---3-------3---|-2-------2-------1---1-------3---|
  E|---------------------------------|---------------------------------|





  G|---------------------------------|---------------------------------|
  D|---------------------------------|---------------------------------|
  A|-5-------5-------3---3-------3---|-2-------2-------1-1---1-1-1-3---|
  E|---------------------------------|---------------------------------|





  G|---------------------------------|---------------------------------|
  D|---------------------------------|---------------------------------|
  A|-5-------5-------3---3-------3---|-2-------2-------1---1-------3---|
  E|---------------------------------|---------------------------------|




     03:18

  G|---------------------------------|---------------------------------|
  D|---------------------------------|---------------------------------|
  A|-5---5---5---5---5---5---5-0-5-4-|-3---3---3-----------0---3-------|
  E|---------------------------------|-------------2---3---------------|





  G|---------------------------------|---------------------------------|
  D|---------------------------------|---------------------------------|
  A|-2---2---2---------------2-------|-1---1---1-----------0---1---3---|
  E|-------------0---3---5-------3---|-------------2---3---------------|





  G|---------------------------------|---------------------------------|
  D|---------------------------------|---------------------------------|
  A|-5---5---5---0-------------3-5---|-3---------------2---------------|
  E|-----------------3---5-----------|---------------------------------|





  G|---------------------------------|---------------------------------|
  D|---------------------------------|---------------------------------|
  A|---------------------------------|---------------------------------|
  E|---------------------------------|---------------------------------| .....





Comments


Popular Beatles tabs & chords
A Hard Day's Night 2 Bass Tabs
Besame Mucho Bass Tabs
Come Together Bass Tabs
Come Together 2 Bass Tabs
Christmastime Is Here Again Chords
I Am The Walrus Chords
I'll Cry Instead Chords
Nowhere Man Chords
Back In The Ussr Riff Tabs
Dig It Tabs


Song lyrics



↑ Back to top | Tablatures and chords are parodies/interpretations of the original songs. You may use it for private study, scholarship, research or language learning purposes only
© 2014 AZChords.com Contact us | Privacy policy | DMCA | Add/correct tabs | Request tabs | Top 50 tabs