» » »

Day Tripper Bass tabs (ver.7)

Artists:  A B C D E F G H I J K L M N O P Q R S T U V W X Y Z # 

Day Tripper Bass tabs (ver.7)

Beatles
Rating:
0/5 (0 votes)

Hard to play? Try these video lessons and learn fast.
                  -----------------------------------------------------------------

  THE BEATLES - DAY TRIPPER (Lennon/McCartney) Released as a double
                A-side single w WE CAN WORK IT OUT on December 3rd 
                1965.

  -----------------------------------------------------------------






  This song was made in a haste when they were asked urgently for a 
  new single. The solo, a climactic crescendo, was played this time
  by John, while George played a long ascending scale. Ringo plays
  great fills, fours in the bass drum and snare during the 1st part
  of the choruses (00:32, etc) and a very curious two sixteenth note 
  rebound on the 2nd (00:39, etc). Although it was supposed to be a
  double a-side single, WE CAN WORK IT OUT had a greater airplay in
  the end, but this track is a rave. And just listen to that third 
  chorus: John's falsetto melody is simply astounding. 
                                                    




    Got a good reason for taking the easy way out
    Got a good reason for taking the easy way out now

    She was a day tripper, a one way ticket, yeah
    It took me so long to find out and I found out

    She's a big teaser, she took me half the way there
    She's a big teaser, she took me half the way there now

    She was a day tripper, one way ticket, yeah
    It took me so long to find out and I found out

                      SOLO

    Tried to please her, she only played one night stands
    Tried to please her, she only played one night stands now

    She was a day tripper, Sunday driver, yeah
    It took me so long to find out and I found out

    Day tripper (yeah)
    Day tripper, yeah

    Day tripper
    Day tripper, yeah

    Day tripper





    INTRO

  G|------- ------- ------- -------|------- ------- ------- -------|
  D|-------------------------------|-------------------------------|
  A|-------------------------------|-------------------------------|
  E|-------------------------------|-------------------------------|

    00:04
  G|------- ------- ------- 9------|------- ----11- ------- ----9--|
  D|--------------------9-------12-|--------9-----------9-/-12-----|
  A|7-----------10--11-------------|-------------------------------|
  E|-------------------------------|-------------------------------|


  G|------- ------- ------- 9------|------- ----11- ------- ----9--|
  D|--------------------9-------12-|--------9-----------9---12-----|
  A|7-----------10--11-------------|-------------------------------|
  E|-------------------------------|-------------------------------|


  G|------- ------- ------- 9------|------- ----11- ------- ----9--|
  D|--------------------9-------12-|--------9-----------9---12-----|
  A|7-----------10--11-------------|-------------------------------|
  E|-------------------------------|-------------------------------|


    VERSE
    00:14
  G|------- ------- ------- 9------|------- ----11- ------- ----9--|
  D|--------------------9-------12-|--------9-----------9---12-----|
  A|7-----------10--11-------------|-------------------------------|
  E|-------------------------------|-------------------------------|
    Got a   good                                                for
                reason

  G|------- ------- ------- 9------|------- ----11- ------- ----9--|
  D|--------------------9-------12-|--------9-----------9---12-----|
  A|7-----------10--11-------------|-------------------------------|
  E|-------------------------------|-------------------------------|
    taking  the easy        way out.


  G|------- ------- ------- 2---0--|------- ----4-- ------- 0---2--|
  D|--------------------2----------|--------2-----------2----------|
  A|0-----------3---4--------------|-------------------------------|
  E|-------------------------------|-------------------------------|
    Got a   good                                                for
                reason 

  G|------- ------- ------- 9------|------- ---/11- ------- ----9--|
  D|--------------------9-------12-|--------9-----------9---12-----|
  A|7-----------10--11-------------|-------------------------------|
  E|-------------------------------|-------------------------------|
    taking  the easy        way  out    now             She was a


    CHORUS
    00:32
  G|------- ------- 9------ 8---11-|------- ------- 9------ 8---11-|
  D|--------8---11-----------------|--------8---11-----------------|
  A|9------------------------------|9------------------------------|
  E|-------------------------------|-------------------------------|
    day                             tripper                       a


  G|------- ------- 9------ 8---11-|------- ------- 9------ 8---11-|
  D|--------8---11-----------------|--------8---11-----------------|
  A|9------------------------------|9------------------------------|
  E|-------------------------------|-------------------------------|
    one way     ticket,         yeah                   It   took me


  G|------- ------- 0------ ----2--|------- ------- ------- -------|
  D|------------2-----------4------|----------------4-------3---6--|
  A|0-------4----------------------|--------3---6------------------|
  E|-------------------------------|4------------------------------|
    so                              long               to   find 
                                                                out

  G|------- ------- ------- -------|------- ------- ------- -------|
  D|--------3-------6---6----------|--------1-------4---4----------|
  A|2/4---------------------4------|2-----------------------2------|
  E|-------------------------------|-------------------------------|
                        and found out
                           I

    00:46
  G|------- ------- ------- 9------|------- ----11- ------- ----9--|
  D|--------------------9-------12-|--------9-----------9---12-----|
  A|7-----------10--11-------------|-------------------------------|
  E|-------------------------------|-------------------------------|


  G|------- ------- ------- 9------|------- ----11- ------- ----9--|
  D|--------------------9-------12-|--------9-----------9---12-----|
  A|7-----------10--11-------------|-------------------------------|
  E|-------------------------------|-------------------------------|


    VERSE
    00:52
  G|------- ------- ------- 9------|------- ----11- ------- ----9--|
  D|--------------------9-------12-|--------9-----------9---12-----|
  A|7-----------10--11-------------|-------------------------------|
  E|-------------------------------|-------------------------------|
    She's   big teaser             
        a

  G|------- ------- ------- 9------|------- ----11- ------- ----9--|
  D|--------------------9-------12-|--------9-----------9---12-----|
  A|7-----------10--11-------------|-------------------------------|
  E|-------------------------------|-------------------------------|
    She took    half    the way there
            me

  G|------- ------- ------- 2---0--|------- ----4-- ------- 0---2--|
  D|--------------------2----------|--------2-----------2----------|
  A|0-----------3---4--------------|-------------------------------|
  E|-------------------------------|-------------------------------|
    She's   big teaser
        a

  G|------- ------- ------- ----9--|9\7---- ----11- ------- ----9--|
  D|--------------------9----------|--------9-----------9---12-----|
  A|7-----------10--11-------------|-------------------------------|
  E|-------------------------------|-------------------------------|
    She took    half    the way there   now             She was a
            me
    CHORUS
    01:06
  G|------- ------- ----9-- ----11-|------- ------- ----9-- ----11-|
  D|--------8-------11------13-----|--------8-------11-----/13-----|
  A|9------------------------------|9------------------------------|
  E|-------------------------------|-------------------------------|
    day                             tripper                     


  G|------- ------- ----9-- ----11-|------- ------- ----9-- ----11-|
  D|--------8-------11------13-----|--------8-------11------13-----|
  A|9------------------------------|9------------------------------|
  E|-------------------------------|-------------------------------|
    0ne     way     ticket,     yeah                   It   took me


  G|------- ------- ----0-- ----2--|------- ------- ------- -------|
  D|----------------2-------4------|-------------------------------|
  A|0-------4----------------------|--------3-------6-------3---6--|
  E|-------------------------------|4------------------------------|
    so                              long                to  find 
                                                                out

  G|------- ------- ------- -------|------- ------- ------- -------|
  D|------------3---6-------3---6--|------------1---4---4---1------|
  A/4------------------------------|2---------------------------2--|
  E|-------------------------------|-------------------------------|
                        and   found out
                          I
    SOLO
    01:20
  G|------- ------- ------- -------|------- ------- ------- -------|
  D|9-------9-------9-------9------|9-------9-------9-------9------|
  A|-------------------------------|-------------------------------|
  E|-------------------------------|-------------------------------|


  G|------- ------- ------- -------|------- ------- ------- -------|
  D|9-------9-------9-------9------|9-------9-------9-------9------|
  A|-------------------------------|-------------------------------|
  E|-------------------------------|-------------------------------|


  G|------- ------- ------- -------|------- ------- ------- -------|
  D|9---9-----------9---9----------|9---9-----------9---9----------|
  A|-------------------------------|-------------------------------|
  E|-------------------------------|-------------------------------|


  G|------- ------- ------- -------|------- ------- ------- -------|
  D|9---9---9-------9---9---9------|9---9---9-------9---9---9------|
  A|-------------------------------|-------------------------------|
  E|-------------------------------|-------------------------------|


  G|------- ------- ------- -------|------- ------- ------- -------|
  D|9---9---9-------9---9---9------|9---9---9-------9---9---9------|
  A|-------------------------------|-------------------------------|
  E|-------------------------------|-------------------------------|


  G|------- ------- ------- -------|------- ------- ------- -------|
  D|9---9---9---9---9---9---9---9--|9---9---9---9---9---9---9---9--|
  A|-------------------------------|-------------------------------|
  E|-------------------------------|-------------------------------|



    01:42
  G|------- ------- ------- 9------|------- ----11- ------- ----9--|
  D|--------------------9-------12-|--------9-----------9---12-----|
  A|7-----------10--11-------------|-------------------------------|
  E|-------------------------------|-------------------------------|


  G|------- ------- ------- 9------|------- ----11\ ------- ----9--|
  D|--------------------9-------12-|--------9-----------9---12-----|
  A|7-----------10--11-------------|-------------------------------|
  E|-------------------------------|-------------------------------|


    VERSE
    01:48
  G|------- ------- ------- 9------|------- ----11- ------- ----9--|
  D|--------------------9-------12-|--------9-----------9---12-----|
  A|7-----------10--11-------------|-------------------------------|
  E|-------------------------------|-------------------------------|
    Tried   to  please  her,


  G|------- ------- ------- 9------|------- ----11\ ------- ----9--|
  D|--------------------9-------12-|--------9-----------9---12-----|
  A|7-----------10--11-------------|-------------------------------|
  E|-------------------------------|-------------------------------|
    She only    played  one night 
                                stands

  G|------- ------- ------- 2---0--|------- ----4-- ------- 0---2--|
  D|--------------------2----------|--------2-----------2----------|
  A|0-------0---3---4--------------|-------------------------------|
  E|-------------------------------|-------------------------------|
    Tried   to  please  her,


  G|------- ------- ------- 9------|------- ----11\ ------- ----9--|
  D|--------------------9-------12-|--------9-----------9---12-----|
  A|7-----------10--11-------------|-------------------------------|
  E|-------------------------------|-------------------------------|
    She only    played  one night       now             She was a      
                                 stands

    CHORUS
    02:02
  G|------- ------- 9------ 8---11-|------- ------- 9------ 8---11-|
  D|--------8---11-----------------|--------8---11-----------------|
  A|9------------------------------|9------------------------------|
  E|-------------------------------|-------------------------------|
    day                             tripper                     


  G|------- ------- 9------ 8---11-|------- ------- 9------ 8---11-|
  D|--------8---11-----------------|--------8---11-----------------|
  A|9------------------------------/9------------------------------|
  E|-------------------------------|-------------------------------|
    Sunday      driver,         yeah                    It  took 
                                                              me

  G|------- ------- 0------ ----2--|------- ------- ------- -------|
  D|------------2-----------4------|----------------4-------3------|
  A|0-------4----------------------|--------3---6------------------|
  E|-------------------------------|4------------------------------|
    so                          long                    to  find 
                                                                out

  G|------- ------- ------- -------|------- ------- ------- -------|
  D|--------3-------6---6----------|--------1-------4---4---1------|
  A|2/4---------------------4------|2------------------------------|
  E|-------------------------------|-------------------------------|
                        and   found out
                          I
    CODA
    02:17
  G|------- ------- ------- -------|------- ------- ------- -------|
  D|-------------------------------|-------------------------------|
  A|-------------------------------|-------------------------------|
  E|-------------------------------|-------------------------------|


  G|------- ------- ------- 9------|------- ----11- ------- ----9--|
  D|--------------------9-------12-|--------9-----------9-/-12-----|
  A/7-----------10--11-------------|-------------------------------|
  E|-------------------------------|-------------------------------|



  G|------- ------- ------- 9------|------- ---/11- ------- ----9--|
  D|--------------------9-------12-|--------9-----------9-/-12-----|
  A|7-----------10--11-------------|-------------------------------|
  E|-------------------------------|-------------------------------|



  G|------- ------- ------- 9------|------- ---/11- ------- ----9--|
  D|--------------------9-------12-|--------9-----------9---12-----|
  A|7-----------10-/11-------------|-------------------------------|
  E|-------------------------------|-------------------------------|


  02:30

  G|------- ------- ------- 9------|------- ---/11- ------- ----9--|
  D|--------------------9-------12-|--------9-----------9-/-12-----|
  A|7-----------10--11-------------|-------------------------------|
  E|-------------------------------|-------------------------------|
            Day     tripper
 

  G|------- ------- ------- 9------|------- ---/11- ------- ----9--|
  D|--------------------9-------12-|--------9-----------9---12-----|
  A|--------7---10--11-------------|-------------------------------|
  E|-------------------------------|-------------------------------|
            Day     tripper,    yeah


  G|------- ------- ------- 9------|------- ------- ------- -------|
  D|--------------------9-------12-|-------/9---12---------/9---12-|
  A|7-----------10--11-------------|-------------------------------|
  E|-------------------------------|-------------------------------|
            Day     tripper


  G|------- ------- ------- -------|------- ------- ------- -------|
  D|-------/9---12---------/9---12-|-------/9---12----------7-H-9--|
  A|-------------------------------|-------------------------------|
  E|-------------------------------|-------------------------------|
            Day     tripper,    yeah     
    .............................Fade..............................


  G|------- ------- ------- 9------|------- ------- ------- -------|
  D|--------------------9-------12-|-------------------------------|
  A|7-----------10--11-------------|-------------------------------|
  E|-------------------------------|-------------------------------|
            Day     tripper
    ...............................







        B  Bend
        R  Release
        /  slide up
        \  slide down
        H  hammer-on
        P  pull-off
        ~  vibrato
        +  harmonic
        x  Mute note
        . - play note like a dot in standard notation
        ^ - ties two notes together
        (. Pause
            
Hard to play? Try these video lessons and learn fast. | Correct




comments powered by Disqus
↑ Back to top | Tablatures and chords are parodies/interpretations of the original songs. You may use it for private study, scholarship, research or language learning purposes only