» » »

Day Tripper Bass tabs (ver.1)

Artists:  A B C D E F G H I J K L M N O P Q R S T U V W X Y Z # 

Day Tripper Bass tabs (ver.1)

Beatles
Rating:
0/5 (0 votes)

Hard to play? Try these video lessons and learn fast.
                daytripper-the beatles

G|------97---11----79---
D|---549----9-----9-----
A|-7--------------------
E|----------------------

G|-----20--2---202-
D|----2-----4------
A|-034-------------
E|-----------------

G|------97---11----79----------9-8---------99-8--
D|---549----9-----9--------8-11---11---8-11----11
A|-7--------------------9-------------9----------
E|-----------------------------------------------
            
Hard to play? Try these video lessons and learn fast. | Correct




comments powered by Disqus
↑ Back to top | Tablatures and chords are parodies/interpretations of the original songs. You may use it for private study, scholarship, research or language learning purposes only