» » »

Crying Waiting Hoping Bass tabs (ver.1)

Artists:  A B C D E F G H I J K L M N O P Q R S T U V W X Y Z # 

Crying Waiting Hoping Bass tabs (ver.1)

Beatles
Rating:
0/5 (0 votes)

Hard to play? Try these video lessons and learn fast.
                CRYING, WAITING, HOPING

Written by Buddy Holly

INTRO
  t=152
G|---------------------------------|---------------------------------|
D|-7-----------7-----------7-------|-----------------9---------------|
A|-----------------7---------------|-7-----------7-----------7-------|
E|---------------------------------|---------------------------------|

G|---------------------------------|---------------------------------|
D|-7-------7-----------------------|-7-------7---------------4---6---|
A|-----------------5-------5-------|-----------------7----7----------|
E|---------------------------------|---------------------------------|

VERSE

G|---------------------------------|---------------------------------|
D|-7-----------7-----------7-------|-----------------9---------------|
A|-----------------7---------------|-7-----------7-----------7-------|
E|---------------------------------|---------------------------------|

G|---------------------------------|---------------------------------|
D|-7-------------------------------|-----------------7---------------|
A|-------------4---7-------4-------|-5-----------5-----------5-------|
E|---------------------------------|---------------------------------|

G|---------------------------------|---------------------------------|
D|-7-------------------------------|-----------------9---------------|
A|-------------4---7-------4-------|-7-----------7-----------7-------|
E|---------------------------------|---------------------------------|

G|---------------------------------|---------------------------------|
D|-7-----------7-----------7-------|-----------------9-------4---6---|
A|-----------------7---------------|-7-----------7-------7-----------|
E|---------------------------------|---------------------------------|

VERSE

G|---------------------------------|---------------------------------|
D|-7-----------7-----------7-------|-----------------9---------------|
A|-----------------7---------------|-7-----------7-----------7-------|
E|---------------------------------|---------------------------------|

G|---------------------------------|---------------------------------|
D|-7-------------------------------|-----------------7---------------|
A|-------------4---7-------4-------|-5-----------5-----------5-------|
E|---------------------------------|---------------------------------|

G|---------------------------------|---------------------------------|
D|-7-------------------------------|-----------------9---------------|
A|-------------4---7-------4-------|-7-----------7-----------7-------|
E|---------------------------------|---------------------------------|

G|---------------------------------|---------------------------------|
D|-7-----------7-------------------|-7-----------7-----------7-------|
A|-----------------5-----------5---|-----------------7---------------|
E|---------------------------------|---------------------------------|

BRIDGE

G|---------------------------------|---------------------------------|
D|-----------------9---------------|-7-----------7-------------------|
A|-7-----------7-----------7-------|-----------------7---------------|
E|---------------------------------|---------------------------------|

G|---------------------------------|---------------------------------|
D|-7-------------------------------|-7-----------7---6-------4-------|
A|-------------7---5---------------|---------------------------------|
E|---------------------------------|---------------------------------|

G|---------------------------------|---------------------------------|
D|-----------------9---------------|-7-----------7-------------------|
A|-7-----------7-----------7-------|-----------------7---------------|
E|---------------------------------|---------------------------------|

G|---------------------------------|---------------------------------|
D|-7-------------------------------|-7-----------------------4---6---|
A|-------------7---5-----------7---|-----------------7---------------|
E|---------------------------------|---------------------------------|

VERSE

G|---------------------------------|---------------------------------|
D|-7-----------7-----------7-------|-----------------9---------------|
A|-----------------7---------------|-7-----------7-----------7-------|
E|---------------------------------|---------------------------------|

G|---------------------------------|---------------------------------|
D|-7-------------------------------|-----------------7---------------|
A|-------------4---7-------4-------|-5-----------5-----------5-------|
E|---------------------------------|---------------------------------|

G|---------------------------------|---------------------------------|
D|-7-------------------------------|-----------------9---------------|
A|-------------4---7-------4-------|-7-----------7-----------7-------|
E|---------------------------------|---------------------------------|

G|---------------------------------|---------------------------------|
D|-7-----------7-------------------|-7-----------7-----------7-------|
A|-----------------5-----------5---|-----------------7---------------|
E|---------------------------------|---------------------------------|

GUITAR SOLO

G|---------------------------------|---------------------------------|
D|-7-----------7-----------7-------|-----------------9---------------|
A|-----------------7---------------|-7-----------7-----------7-------|
E|---------------------------------|---------------------------------|

G|---------------------------------|---------------------------------|
D|-7-------------------------------|-----------------7---------------|
A|-------------4---7-------4-------|-5-----------5-----------5-------|
E|---------------------------------|---------------------------------|

G|---------------------------------|---------------------------------|
D|-7-------------------------------|-----------------9---------------|
A|-------------4---7-------4-------|-7-----------7-----------7-------|
E|---------------------------------|---------------------------------|

G|---------------------------------|---------------------------------|
D|-7-----------7-------------------|-7-----------7-----------7-------|
A|-----------------5-----------5---|-----------------7---------------|
E|---------------------------------|---------------------------------|

G|---------------------------------|---------------------------------|
D|---------------------------------|-----------------9---------------|
A|-----------------7---------------|-7-----------7-----------7-------|
E|-5-----------------------5-------|---------------------------------|

G|---------------------------------|---------------------------------|
D|-7-------------------------------|-----------------7---------------|
A|-------------4---7-------4-------|-5-----------5-----------5-------|
E|---------------------------------|---------------------------------|

G|---------------------------------|---------------------------------|
D|-7-------------------------------|-----------------9---------------|
A|-------------4---7-------4-------|-7-----------7-----------7-------|
E|---------------------------------|---------------------------------|

G|---------------------------------|---------------------------------|
D|-7-------7-----------------------|-7--------------/7------/7-------|
A|-----------------5-------5-------|---------------------------------|
E|---------------------------------|---------------------------------|

BRIDGE

G|---------------------------------|---------------------------------|
D|-----------------9---------------|---------------------------------|
A|-7-----------7-----------7-------|-----------------7---------------|
E|---------------------------------|-5-----------5-------------------|

G|---------------------------------|---------------------------------|
D|-7-------------------------------|-7-------7-------6-------4-------|
A|-------------7---5---------------|---------------------------------|
E|---------------------------------|---------------------------------|

G|---------------------------------|---------------------------------|
D|-----------------9---------------|-7-----------7-------------------|
A|-7-----------7-------------------|-----------------7---------------|
E|---------------------------------|---------------------------------|

G|---------------------------------|---------------------------------|
D|-7-------------------------------|-7-----------7-----------4---6---|
A|-------------7---5---------------|-----------------7---------------|
E|---------------------------------|---------------------------------|

VERSE

G|---------------------------------|---------------------------------|
D|-7-----------7-----------7-------|-----------------9---------------|
A|-----------------7---------------|-7-----------7-----------7-------|
E|---------------------------------|---------------------------------|

G|---------------------------------|---------------------------------|
D|-7-------------------------------|-----------------7---------------|
A|-------------4---7-------4-------|-5-----------5-----------5-------|
E|---------------------------------|---------------------------------|

G|---------------------------------|---------------------------------|
D|-7-------------------------------|-----------------9---------------|
A|-------------4---7-------4-------|-7-----------7-----------7-------|
E|---------------------------------|---------------------------------|

G|---------------------------------|---------------------------------|
D|-7-----------7-------------------|-7-----------7-----------7-------|
A|-----------------5-----------5---|-----------------7---------------|
E|---------------------------------|---------------------------------|

OUTRO

G|---------------------------------|---------------------------------|
D|-7-----------7-----------7-------|-----------------9---------------|
A|-----------------7---------------|-7-----------7-----------7-------|
E|---------------------------------|---------------------------------|

G|---------------------------------|---------------------------------|
D|---------------------------------|-----------------7---------------|
A|-------------4---7-------4-------|---------------------------------|
E|-5-------------------------------|-5-----------5-------------------|
            
Hard to play? Try these video lessons and learn fast. | Correct




comments powered by Disqus
↑ Back to top | Tablatures and chords are parodies/interpretations of the original songs. You may use it for private study, scholarship, research or language learning purposes only