» » »

Beatles, Crying Waiting Hoping Tabs (ver.1)

Artists:  A B C D E F G H I J K L M N O P Q R S T U V W X Y Z # 

Crying Waiting Hoping Tabs (ver.1)

Beatles Tabs
Rating:
0/5 (0 votes)
Crying Waiting Hoping lessons Tabs too difficult? Try these video lessons and learn fast
                  ------------------------------------------------------------------

    THE BEATLES – CRYING, WAITING, HOPING (Buddy Holly) From THE 
                  BEATLES LIVE AT THE BBC album. Released on 30th
                  November, 1994.

  ------------------------------------------------------------------





    Performed along with "I'm Gonna Sit Right Down And Cry (Over 
    You)", "Kansas City/Hey, Hey, Hey, Hey", "To Know Her Is To
    Love Her", "The Honeymoon Song" and "Twist And Shout" for Pop
    Go The Beatles, programme eight, on 6th August 1963.





   Crying (Crying)
   Waiting (Waiting)
   Hoping (Hoping)
   You'll come back
   I just can't seem to get you off my mind

   Crying (Crying)
   Waiting (Waiting)
   Hoping (Hoping)
   You'll come back
   You're the one I love, I think about you all the time

   Crying (Crying, do, do, do)
   Tear keep a falling all night long
   Waiting (Waiting, do, do, do) 
   It seems so useless I know it's wrong

   Keep a crying (Crying)
   Waiting (Waiting)
   Hoping (Hoping)
   You'll come back
   Maybe someday soon it'll change and you'll be mine

    (GUITAR SOLO)

   Crying (Crying, do, do, do)
   Tear keep a falling all night long
   Waiting (Waiting, do, do, do) 
   It seems so useless I know it's wrong

   Keep a crying (Crying)
   Waiting (Waiting)
   Hoping (Hoping)
   You'll come back
   Maybe someday soon it'll change and you'll be mine

   Crying (Crying)
   Waiting (Waiting)
   Hoping (Hoping)





    INTRO


  e|---------------------------------|-------------------------12--10--|
  B|---------------------------------|---------------------------------|
  G|---------------------------------|---------------------------------|
  D|---------------------------------|---------------------------------|
  A|---------------------------------|---------------------------------|
  E|---------------------------------|---------------------------------|




     A                                 E
  e|-9-------------------------------|---------------------------------|
  B|-----12-----10---------------10--|-12------12--10--9---12------10--|
  G|---------------------9---11------|---------------------------------|
  D|---------------------------------|---------------------------------|
  A|---------------------------------|---------------------------------|
  E|---------------------------------|---------------------------------|




     A               D                 A           E
  e|-----0-------0---2---2---2-------|-0---0-0-0---0-------0---0-------|
  B|-----2-------2---3---3---3-------|-2---2-2-2---0-------0---0---0---|
  G|-----2---2---2---2---2---2-------|-2---2-2-2---1-------1---1---1---|
  D|-----2---2---2---0---0---0-------|-2---2-2-2---2-------2---2---2---|
  A|-----0---0---0-------------------|-0---0-0-0---2-------2---2---2---|
  E|---------------------------------|-------------0-------0---0---0---|





    VERSE


     A                                 E
  e|-0-----------0-------0---0-------|-0-----------0-------0-------0---|
  B|-2-----------2-------2---2---2---|-0-----------0-------0---0---0---|
  G|-2-----------2-------2---2---2---|-1-----------1-------1---1---1---|
  D|-2-----------2-------2---2---2---|-2-----------2-------2---2---2---|
  A|-0-----------0-------0---0---0---|-2-----------2-------2---2---2---|
  E|---------------------------------|-0-----------0-------0---0---0---|
     Crying         (crying)           waiting        (waiting)



     A                                 D
  e|-0-------0---0---0---0---0-------|-2---2-------2-------3---2-------|
  B|-2-------2---2---2---2---2-------|-3---3-------3-------3---3-------|
  G|-2-------2---2---2---2---2-------|-2---2-------2-------2---2---2---|
  D|-2-------2---2---2---2---2-------|-0---0-------0-------0---0---0---|
  A|-0-------0---0---0---0---0-------|---------------------------------|
  E|---------------------------------|---------------------------------|
     hoping         (hoping)           you'll      back            I
                                           come



     A                                 E
  e|-0---0-------0-------0---0-------|-----0-------0---0---0---0-------|
  B|-2---2-------2-------3---2-------|-----0-------0---0---0---0-------|
  G|-2---2-------2-------2---2-------|-1---1-------1---1---1---1-------|
  D|-2---2-------2-------2---2-------|-2---2-------2---2---2---2-------|
  A|-0---0-------0-------0---0-------|-2---2-------2---2---2---2-------|
  E|---------------------------------|-0---0-------0---0---0---0-------|
     just        seem            to    get you of      my      mind
         can't



     A                                 E
  e|-0---0-------0-------0---0---0---|-----0---0---0---0---0---0---0---|
  B|-2---2-------2-------2---2---2---|-----0---0---0---0---0---0---0---|
  G|-2---2-------2-------2---2---2---|-----1---1---1---1---1---1---1---|
  D|-2---2-------2-------2---2---2---|-----2---2---2---2---2---2---2---|
  A|-0---0-------0-------0---0---0---|-----2---2---2---2---2---2---2---|
  E|---------------------------------|-----0---0---0---0---0---0---0---|





    VERSE


     A                                 E
  e|-0-----------0-----------0-------|-0---0-------0-------0---0-------|
  B|-2-----------2-----------2-------|-0---0-------0-------0---0---0---|
  G|-2-----------2-----------2-------|-1---1-------1-------1---1---1---|
  D|-2-----------2-----------2-------|-2---2-------2-------2---2---2---|
  A|-0-----------0-----------0-------|-2---2-------2-------2---2---2---|
  E|---------------------------------|-0---0-------0-------0---0---0---|
     Crying         (crying)           waiting        (waiting)



     A                                 D
  e|-0---0---------------0---0-------|-2---2-------2-------3---2-------|
  B|-2---2---------------2---2-------|-3---3-------3-------3---3-------|
  G|-2---2---------------2---2---2---|-2---2-------2-------2---2-------|
  D|-2---2---------------2---2---2---|-0---0-------0-------0---0-------|
  A|-0---0---------------0---0---0---|---------------------------------|
  E|---------------------------------|---------------------------------|
     hoping         (hoping)           you'll      back    You're  the
                                           come



     A                                 E
  e|-0---0-------0-------0---0-------|-----0---0---0---0---0---0-------|
  B|-2---2-------2-------3---2-------|-----0---0---0---0---0---0-------|
  G|-2---2-------2-------2---2-------|-1---1---1---1---1---1---1-------|
  D|-2---2-------2-------2---2-------|-2---2---2---2---2---2---2-------|
  A|-0---0-------0-------0---0-------|-2---2---2---2---2---2---2-------|
  E|---------------------------------|-0---0---0---0---0---0---0-------|
     one I       love            I     think       you all     the time
                                         about



     A               D                 A
  e|-----0---0---x---2---2---2-------|-0-----0-0---0-----0-0---0-------|
  B|-----2---2---x---3---3---3-------|-2-----2-3---2-----2-3---2-------|
  G|-----2---2---x---2---2---2-------|-2-----2-2---2-----2-2---2-------|
  D|-----2---2---x---0---0---0-------|-2-----2-2---2-----2-2---2-------|
  A|-----0---0---x-------------------|-0-----0-0---0-----0-0---0-------|
  E|---------------------------------|---------------------------------|





    BRIDGE


     E                                 A           E
  e|-0-----------0-----------0-------|-0---0-------0-----------0-------|
  B|-0-----------0-------0---0-------|-2---2-------0-----------0-------|
  G|-1-----------1-------1---1-------|-2---2-------1-------1---1-------|
  D|-2-----------2-------2---2-------|-2---2-------2-------2---2-------|
  A|-2-----------2-------2---2-------|-0---0-------2-------2---2-------|
  E|-0-----------0-------0---0-------|-------------0-------0---0-------|
     Crying         (crying            do, do,     do)



     A               D                 A
  e|---------0-------2---2-----------|-0---0---0---0---0---0---0-------|
  B|---------2-------3---3---3-------|-2---2---2---2---2---2---2---x---|
  G|-----2---2---2---2---2---2-------|-2---2---2---2---2---2---2---x---|
  D|-----2---2---2---0---0---0-------|-2---2---2---2---2---2---2---x---|
  A|-----0---0---0-------------------|-0---0---0---0---0---0---0-------|
  E|---------------------------------|---------------------------------|
     tears   keep    falling     all       night   long
                 a



     E                                 A           E
  e|-0-----------0-----------0-------|-0---0-------0-------0---0-------|
  B|-0-----------0-----------0-------|-2---2-------0-------0---0-------|
  G|-1-----------1-----------1-------|-2---2-------1-------1---1-------|
  D|-2-----------2-----------2-------|-2---2-------2-------2---2-------|
  A|-2-----------2-----------2-------|-0---0-------2-------2---2-------|
  E|-0-----------0-----------0-------|-------------0-------0---0-------|
     Waiting        (waiting           do, do,     do)             it



     A               D                 A           E
  e|-0---0---0-------2---2-----------|-0-----------0-------0---0-------|
  B|-2---2---2-------3---3-----------|-2-----------0-------0---0---0---|
  G|-2---2---2-------2---2-------2---|-2-----------1-------1---1---1---|
  D|-2---2---2-------0---0-------0---|-2-----------2-------2---2---2---|
  A|-0---0---0-----------------------|-0-----------2-------2---2---2---|
  E|---------------------------------|-------------0-------0---0---0---|
     seems   so      useless     I     know    wrong           Keep
                                           it's                    a




    VERSE


     A                                 E
  e|-0-----------0-------0---0-------|-0---0-------0-------0---0-------|
  B|-2-----------2-------2---2-------|-0---0-------0-------0---0-------|
  G|-2-----------2-------2---2-------|-1---1-------1-------1---1-------|
  D|-2-----------2-------2---2-------|-2---2-------2-------2---2-------|
  A|-0-----------0-------0---0-------|-2---2-------2-------2---2-------|
  E|---------------------------------|-0---0-------0-------0---0-------|
     crying         (crying)           waiting        (waiting)



     A                                 D
  e|-0---0-------0-------0---0-------|-2---2-------2-------3---2-------|
  B|-2---2-------2-------2---2-------|-3---3-------3-------3---3-------|
  G|-2---2-------2-------2---2---2---|-2---2-------2-------2---2-------|
  D|-2---2-------2-------2---2---2---|-0---0-------0-------0---0-------|
  A|-0---0-------0-------0---0---0---|---------------------------------|
  E|---------------------------------|---------------------------------|
     hoping         (hoping)           you'll      back    Maybe
                                           come



     A                                 E
  e|-0---0-------0-------0---0-------|-----0---0---0---0---0---0-------|
  B|-2---2-------2-------3---2-------|-----0---0---0---0---0---0-------|
  G|-2---2-------2-------2---2-------|-----1---1---1---1---1---1-------|
  D|-2---2-------2-------2---2-------|-----2---2---2---2---2---2-------|
  A|-0---0-------0-------0---0-------|-----2---2---2---2---2---2-------|
  E|---------------------------------|-----0---0---0---0---0---0-------|
     someday     soon        it'll     change  and     you'll      mine
                                                           be



     A               D                 A           E
  e|-----0---0---0---2---2---2-------|-0-----------0-------0---0-------|
  B|-----2---2---2---3---3---3-------|-2-----------0-------0---0-------|
  G|-----2---2---2---2---2---2-------|-2-----------1-------1---1-------|
  D|-----2---2---2---0---0---0-------|-2-----------2-------2---2-------|
  A|-----0---0---0-------------------|-0-----------2-------2---2-------|
  E|---------------------------------|-------------0-------0---0-------|





    GUITAR SOLO


     A                                 E
  e|-5---5--------5------5-----------|-7---7--------7------7-----------|
  B|-5---5-------5-----------5-------|-9---9-------9-----------9-------|
  G|------------6----------------6---|------------9--------------------|
  D|---------------------------------|-----------------------------9---|
  A|---------------------------------|---------------------------------|
  E|---------------------------------|---------------------------------|




     A                                 D
  e|-9---9-------9---9-------9-------|-10--10------10------12--10------|
  B|10--10------10--10------10-------|-10--10------10------------------|
  G|-9---9-------9---9-------9-------|-11--11------11------------------|
  D|---------------------------------|---------------------------------|
  A|---------------------------------|---------------------------------|
  E|---------------------------------|---------------------------------|




     A                                 E
  e|-9---9-------7---5-------5---7---|-----7---7---5---4--5/7------5---|
  B|10--10---------------------------|---------------------------------|
  G|-9---9---------------------------|---------------------------------|
  D|---------------------------------|---------------------------------|
  A|---------------------------------|---------------------------------|
  E|---------------------------------|---------------------------------|




     A               D                 A
  e|-------------5-----------5-------|-----9-------9---9---9---9-------|
  B|---------5-----------7-----------|----10------10--10--10--10-------|
  G|-----6-----------7---------------|-----9-------9---9---9---9-------|
  D|---------------------------------|---------------------------------|
  A|---------------------------------|---------------------------------|
  E|---------------------------------|---------------------------------|




                                       E
  e|-9---12--9---12--9---------------|-----10------------------10------|
  B|10-------------------10----------|-10--10----------10------10--10--|
  G|-9---------------------------11--|-----11------11--11------11------|
  D|---------------------------------|---------------------------------|
  A|---------------------------------|---------------------------------|
  E|---------------------------------|---------------------------------|




     A                                 D
  e|-9---12------9-------------------|-10--14------10--1210------------|
  B|10---------------12--10----------|-10------------------1210--------|
  G|-9-----------------------11--9---|-11----------------------11------|
  D|---------------------------------|-----------------------------12--|
  A|---------------------------------|---------------------------------|
  E|---------------------------------|---------------------------------|




     A                                 E
  e|---------------------------------|----10---9-------7---7---5---4---|
  B|-----10----12-B-14---12--10------|---------------------------------|
  G|-----------------------------11--|---------------------------------|
  D|---------------------------------|---------------------------------|
  A|---------------------------------|---------------------------------|
  E|---------------------------------|---------------------------------|




     A               D                 A
  e|-5---------5---------------12----|-9-------------------------------|
  B|-----5-------------------10------|-----10--------------------------|
  G|---------6-------------11--------|---------11-9--------------------|
  D|-----------------12--12----------|----------------11--9------------|
  A|---------------------------------|------------------------12-------|
  E|---------------------------------|-----------------------------12--|





    BRIDGE


     E                                 A           E
  e|-0-----------0-----------0-------|-0-----------0-----------0-------|
  B|-0-----------0-----------0-------|-2-----------0-----------0-------|
  G|-1-----------1-----------1-------|-2-----------1-------1---1-------|
  D|-2-----------2-----------2-------|-2-----------2-------2---2-------|
  A|-2-----------2-----------2-------|-0-----------2-------2---2-------|
  E|-0-----------0-----------0-------|-------------0-------0---0-------|
     Crying         (crying            do, do,     do)



     A               D                 A
  e|-0-------0-------2---2-----------|-0-----------0-------0---0-------|
  B|-2-------2-------3---3---3-------|-2-----------2-------2---2-------|
  G|-2-------2---2---2---2---2-------|-2-----------2-------2---2-------|
  D|-2-------2---2---0---0---0-------|-2-----------2-------2---2-------|
  A|-0-------0---0-------------------|-0-----------0-------0---0-------|
  E|---------------------------------|---------------------------------|
     tears   keep    falling     all       night   long
                 a



     E                                 A           E
  e|-0-----------0-----------0-------|-0---0-------0-------0---0-------|
  B|-0-----------0-----------0-------|-2---2-------0-------0---0-------|
  G|-1-----------1-----------1---1---|-2---2-------1-------1---1-------|
  D|-2-----------2-----------2---2---|-2---2-------2-------2---2-------|
  A|-2-----------2-----------2---2---|-0---0-------2-------2---2-------|
  E|-0-----------0-----------0---0---|-------------0-------0---0-------|
     Waiting        (waiting           do, do,     do)             it



     A               D                 A           E
  e|---------0-------2---2-----------|-0---0-------0-------0---0-------|
  B|---------2-------3---3-----------|-2---2-------0-------0---0-------|
  G|-----2---2-------2---2-----------|-2---2-------1-------1---1-------|
  D|-----2---2-------0---0-----------|-2---2-------2-------2---2-------|
  A|-----0---0-----------------------|-0---0-------2-------2---2-------|
  E|---------------------------------|-------------0-------0---0-------|
     seems   so      useless     I     know    wrong           Keep
                                           it's                    a




    VERSE


     A                                 E
  e|-0-----------0-------0---0-------|-------------0-------0---0---0---|
  B|-2-----------2-------2---2-------|-------------0-------0---0---0---|
  G|-2-----------2-------2---2-------|-------------1-------1---1---1---|
  D|-2-----------2-------2---2-------|-----2-------2-------2---2---2---|
  A|-0-----------0-------0---0-------|-----2-------2-------2---2---2---|
  E|---------------------------------|-----0-------0-------0---0---0---|
     crying         (crying)           waiting        (waiting)



     A                                 D
  e|-0---0-------0-------0---0-------|-2---2-------2-------3---2-------|
  B|-2---2-------2-------2---2-------|-3---3-------3-------3---3-------|
  G|-2---2-------2-------2---2-------|-2---2-------2-------2---2-------|
  D|-2---2-------2-------2---2-------|-0---0-------0-------0---0-------|
  A|-0---0-------0-------0---0-------|---------------------------------|
  E|---------------------------------|---------------------------------|
     hoping         (hoping)           you'll      back    Maybe
                                           come



     A                                 E
  e|-----0-------0-------0---0-------|-0---0---0---0---0---0---0-------|
  B|-----2-------2-------3---2-------|-0---0---0---0---0---0---0-------|
  G|-----2-------2-------2---2-------|-1---1---1---1---1---1---1-------|
  D|-2---2-------2-------2---2-------|-2---2---2---2---2---2---2-------|
  A|-0---0-------0-------0---0-------|-2---2---2---2---2---2---2-------|
  E|---------------------------------|-0---0---0---0---0---0---0-------|
     someday     soon        it'll     change  and     you'll      mine
                                                           be



     A               D                 A           E
  e|-----0---0---0---2---2---2-------|-0-----0-0---0-----------0-------|
  B|-----2---2---2---3---3---3-------|-2-----2-3---0-----------0-------|
  G|-----2---2---2---2---2---2-------|-2-----2-2---1-----------1-------|
  D|-----2---2---2---0---0---0-------|-2-----2-2---2-----------2-------|
  A|-----0---0---0-------------------|-0-----0-0---2-----------2-------|
  E|---------------------------------|-------------0-----------0-------|





    OUTRO


     A                                 E
  e|-0-------0---0---0---0---0-------|-0-----------0-------0---0-------|
  B|-2-------2---2---2---2---2-------|-0-----------0-------0---0-------|
  G|-2-------2---2---2---2---2-------|-1-----------1-------1---1-------|
  D|-2-------2---2---2---2---2-------|-2-----------2-------2---2-------|
  A|-0-------0---0---0---0---0-------|-2-----------2-------2---2-------|
  E|---------------------------------|-0-----------0-------0---0-------|
     crying         (crying)           waiting        (waiting)



     A
  e|-0---0-------0-------0---0-------|---------7-----------------------|
  B|-2---2-------2-------2---2-------|-5-------5-----------------------|
  G|-2---2-------2-------2---2---6---|-6---6---6-----------------------|
  D|-2---2-------2-------2---2---7---|-7---7---7-----------------------|
  A|-0---0-------0-------0---0---7---|-----7---------------------------|
  E|---------------------------------|---------------------------------|
     hoping         (hoping)
            

comments powered by Disqus
↑ Back to top | Beatles Tabs for Crying Waiting Hoping. Lyrics for acoustic guitar and electric guitar. Tablatures and chords are parodies/interpretations of the original songs. You may use it for private study, scholarship, research or language learning purposes only