>
 >
Cry Baby Cry 3

Cry Baby Cry 3 Bass Tabs

Beatles - Cry Baby Cry 3 chords, tabs, tablatures, lyrics

Guitar lessons | Add/correct | Request | Top 50 tabs Artists:  A B C D E F G H I J K L M N O P Q R S T U V W X Y Z 0-9

Cry Baby Cry 3 Bass Tabs – Beatles

CD, Sheet music, Poster

Do you like Cry Baby Cry 3? Share with your friends now
Bass TabsBass Tabs v2Bass Tabs v3ChordsChords v2Chords v3TabsTabs v2Tabs v3Ukulele
CRY BABY CRY

Written by John Lennon

INTRO CHORUS

   4/4
G|---------------------------------|---------------------------------|
D|---------------------------------|---------------------------------|
A|---------------------------------|---------------------------------|
E|---------------------------------|---------------------------------|

                                    2/4
G|---------------------------------|-----------------|
D|---------------------------------|-----------------|
A|---------------------------------|-----------------|
E|---------------------------------|-----------------|

VERSE

   4/4
G|---------------------------------|---------------------------------|
D|---------------------------------|---------------------------------|
A|---------------------------------|---------------------------------|
E|---------------------------------|---------------------------------|

G|---------------------------------|---------------------------------|
D|---------------------------------|---------------------------------|
A|---------------------------------|---------------------------------|
E|---------------------------------|---------------------------------|

                                    2/4
G|---------------------------------|-----------------|
D|---------------------------------|-----------------|
A|---------------------------------|-----------------|
E|---------------------------------|-----------------|

  4/4
G|---------------------------------|---------------------------------|
D|---------------------------------|---------------------------------|
A|---------------------------------|---------------------------------|
E|---------------------------------|---------------------------------|

G|---------------------------------|---------------------------------|
D|---------------------------------|---------------------------------|
A|---------------------------------|---------------------------------|
E|---------------------------------|---------------------------------|

VERSE

G|---------------------------------|---------------------------------|
D|-----------5---------------5-----|-----------5---------------5-----|
A|-7---7-------7---6---6-------6---|-5---5-------5---4---4-------4---|
E|---------------------------------|---------------------------------|

G|---------------------------------|---------------------------------|
D|---------------------------------|-----------5---------------5-----|
A|-3-------1-----------2---2---5---|-7---7-------7---6---6-------6---|
E|---------------3-3-5-------------|---------------------------------|

                                    2/4
G|-------4-------------4-----------|-----------------|
D|-----------5-----------5---------|-----------------|
A|-5---5-------5---4---------4-4---|-3---3-1-1---1---|
E|---------------------------------|---------------3-|

  4/4
G|---------------------------------|---------------------------------|
D|-----------------------------2---|-3---2---3---4---5---2-----------|
A|---------2-----------2---3-------|-------------------------5-2-----|
E|-3---5-------3---5---------------|-----------------------------3---|

G|-----------4-----2---2-----------|---------------------------------|
D|-2---2-----------------------5---|-3---2---3---4---5-2-------------|
A|---------------------------------|---------------------5-2---------|
E|---------------------------------|-------------------------3-------|

VERSE

G|---------------------------------|---------------------------------|
D|---------------------------------|---------------------------------|
A|-7---------------6---------------|-5---------------4---------------|
E|---------------------------------|---------------------------------|

G|---------------------------------|---------------------------------|
D|---------------------------------|---------------------------------|
A|-3---3---1---1-----------2---5---|-7---------------6---------------|
E|-----------------3---5-----------|---------------------------------|

                                    2/4
G|---------------------------------|-----------------|
D|---------------------------------|-----------------|
A|-5---5---5---5---4---4---4---4---|-3---3---1-------|
E|---------------------------------|-------------5---|

  4/4
G|---------------------------------|---------------------------------|
D|-----------------------------2---|-3---2---3---4---5---2-----------|
A|---------2-----------2---3-------|-------------------------5---2---|
E|-3---5-------3---5---------------|---------------------------------|

G|-----------4-----2---2-----------|---------------------------------|
D|-2---2-------2---------------5---|-3---2---3---4---5-2-------------|
A|---------------------------------|---------------------5---2-------|
E|---------------------------------|-----------------------------3---|

VERSE

G|---------9\--------------9\------|---------9\----------------------|
D|---------------------------------|---------------------------------|
A|-7---7-----------6---6-----------|-5---5-----------4---4---4-------|
E|---------------------------------|---------------------------------|

G|---------------------------------|---------9\--------------9\------|
D|---------------------------------|---------------------------------|
A|-3---3---1---1-----------2---5---|-7---------------6---6-----------|
E|-----------------3---5-----------|---------------------------------|

                                    2/4
G|---------9\------6---6\----------|-----------------|
D|---------------------------------|-----------------|
A|-5---5---------------------------|-3---3-----------|
E|---------------------------------|---------0---3---|

  4/4
G|---------------------------------|---------------------------------|
D|-----------------------------2---|-3---2---3---4---5---5-2---------|
A|---------2-----------2---3-------|---------------------------5-2---|
E|-3---5-------3---5---------------|---------------------------------|

G|-----------4\----2---2-----------|
D|-2---2-------------------5---5---|
A|---------------------------------|
E|---------------------------------|

                                    2/4
G|---------------------------------|-----------------|
D|-3---3-2-3---4---5-2-------------|-----------------|
A|---------------------5---2-------|-----------------|
E|-----------------------------3---|-5---5---5-------|

OUTRO

  4/4
G|---------------------------------|---------4-------2---2-----------|
D|-3---2---3---4---5---2-----------|-2---2-------2-----------5---5---|
A|-------------------------5-2-----|---------------------------------|
E|-----------------------------3---|---------------------------------|

                                    2/4
G|---------------------------------|-----------------|
D|-3---2---3---4-5---2-------------|-----------------|
A|---------------------5---2-------|---------2---3---|
E|-----------------------------3---|-5---5-----------|

  4/4
G|---------------------------------|---------4-------2---2-----------|
D|-3---3---2---3-5---2-------------|-2---2-------2-----------5---5---|
A|---------------------5---2-------|---------------------------------|
E|-----------------------------3---|---------------------------------|

G|---------------------------------|
D|-3---2---3---5---2---------------|
A|---------------------------------|
E|---------------------------------|

(Can You Take Me Back)

G|-10----------------------8-------|-10----------------------8-------|
D|-----------------10--------------|-----------------10--------------|
A|---------------------------------|---------------------------------|
E|---------------------------------|---------------------------------|

G|-10----------------------8-------|-10----------------------8-------|
D|-----------------10--------------|-----------------10--------------|
A|---------------------------------|---------------------------------|
E|---------------------------------|---------------------------------|

G|-10----------------------8-------|-10----------------------8-------|
D|-----------------10--------------|-----------------10--------------|
A|---------------------------------|---------------------------------|
E|---------------------------------|---------------------------------|

G|-10------------------------------|-10------------------------------|
D|-----------------10--------------|-----------------10--------------|
A|---------------------------------|---------------------------------|
E|---------------------------------|---------------------------------|

G|-10------------------------------|-10------------------------------|
D|-----------------10--------------|-----------------10--------------|
A|---------------------------------|---------------------------------|
E|---------------------------------|---------------------------------|

G|-10------------------------------|-10------------------------------|
D|-----------------10--------------|-----------------10--------------|
A|---------------------------------|---------------------------------|
E|---------------------------------|---------------------------------|

G|-10------------------------------|-10----------------------8-------|
D|-----------------10--------------|-----------------10--------------|
A|---------------------------------|---------------------------------|
E|---------------------------------|---------------------------------|

G|-10------------------------------|-10------------------------------|
D|-----------------10--------------|-----------------10--------------|
A|---------------------------------|---------------------------------|
E|---------------------------------|---------------------------------|

G|-10------------------------------|-10------------------------------|
D|-----------------10--------------|-----------------10--------------|
A|---------------------------------|---------------------------------|
E|---------------------------------|---------------------------------|
                                                             FADE OUT





Comments


Popular Beatles tabs & chords
Eight Days A Week 6 Bass Tabs
A Hard Day's Night Chords
Baby Youre A Rich Man 1 Chords
From A Window 1 Chords
Julia Chords
Rocky Raccoon Chords
Ticket To Ride Chords
A Hard Days Night 2 Tabs
Birthday 5 Tabs
Getting Better Tabs


Song lyrics



↑ Back to top | Tablatures and chords are parodies/interpretations of the original songs. You may use it for private study, scholarship, research or language learning purposes only
© 2014 AZChords.com Contact us | Privacy policy | DMCA | Add/correct tabs | Request tabs | Top 50 tabs