» » »

Beatles, Come Together Bass tabs (ver.10)

Artists:  A B C D E F G H I J K L M N O P Q R S T U V W X Y Z # 

Come Together Bass tabs (ver.10)

Beatles Tabs
Rating:
0/5 (0 votes)
Hard to play? Try these video lessons and learn fast.
                -------------------------------------------------------------------------------
	Come Together - The Beatles
-------------------------------------------------------------------------------

Tuning: Standard

 Intro
G|-------------10---------------------10---------------------10-------|
D|------------------12\--------------------12\--------------------12\-|
A|-------10h12------------------10h12------------------10h12----------|
E|-10-10------------------10-10------------------10-10----------------|

                        Verse
G|-------------10-------|-------------10--10-10-----------------10--10-10---|
D|------------------12\-|----------------------12------------------------12-|
A|-------10h12----------|-------10h12--------------------10h12--------------|
E|-10-10----------------|-10-10--------------------10-10--------------------|

                                                    Pre-Chorus
G|-------------10--10-10----------------10--10-10---|-----5-----------5-------|
D|----------------------12-----------------------12-|---------7\--------------|
A|-------10h12--------------------10h12-------------|-0-0---------0-0---------|
E|-10-10--------------------10-10-------------------|-----------------------3-|

 Intro
G|-------------10---------------------10---------------------10-------|
D|------------------12\--------------------12\--------------------12\-|
A|-------10h12------------------10h12------------------10h12----------|
E|-10-10------------------10-10------------------10-10----------------|

                        Verse
G|-------------10-------|-------------10--10-10-----------------10--10-10---|
D|------------------12\-|----------------------12------------------------12-|
A|-------10h12----------|-------10h12--------------------10h12--------------|
E|-10-10----------------|-10-10--------------------10-10--------------------|

                                                    Pre-Chorus
G|-------------10--10-10----------------10--10-10---|-----5-----------5-------|
D|----------------------12-----------------------12-|---------7\--------------|
A|-------10h12--------------------10h12-------------|-0-0---------0-0---7-----|
E|-10-10--------------------10-10-------------------|-----------------------3-|

 Chorus                      Post-Chorus
G|---------------------------|-------------10---------------------10-------|
D|---------------------------|------------------12\--------------------12\-|
A|---------------------------|-------10h12------------------10h12----------|
E|-7-7-7-7-7-7-7-5-3-3-3-3/5-|-10-10------------------10-10----------------|


G|-------------10---------------------10---10h12p10h12p10----|
D|------------------12\----------------------------------12\-|
A|-------10h12------------------10h12------------------------|
E|-10-10------------------10-10------------------------------|

 Verse
G|-------------10--10-10----------------10--10-10----------------10--10-10---|
D|----------------------12-----------------------12-----------------------12-|
A|-------10h12--------------------10h12--------------------10h12-------------|
E|-10-10--------------------10-10--------------------10-10-------------------|

                           Pre-Chorus                Chorus
G|-------------10--10-10---|-----5-----------5-------|---------------------------|
D|----------------------12-|---------7\---------7\---|---------------------------|
A|-------10h12-------------|-0-0---------0-0---------|---------------------------|
E|-10-10-------------------|-----------------------3-|-7-7-7-7-7-7-7-5-3-3-3-3/5-|

 Post Chorus                                              Bridge
G|-------------10---------------------10---10h12p10h12----|-----------------|
D|------------------12\-------------------------------12\-|-----------------|
A|-------10h12------------------10h12---------------------|-5-5-5-5-5-5-5-5-|
E|-10-10------------------10-10---------------------------|-----------------|

                                                   Solo
G|-------------------------------------------------|-----------------|
D|-------------------------------------------------|-----------------|
A|-5-5-5-5-5-5-5-5-5-5-5-5-5-5-5-5-5-5-5-5-5-5-5-5-|-----------------|
E|-------------------------------------------------|-5-5-5-5-5-5-5-5-|

                                                   Post-Solo
G|-------------------------------------------------|-------------10---------|
D|-------------------------------------------------|------------------12\---|
A|-------------------------------------------------|-------10h12------------|
E|-5-5-5-5-5-5-5-5-5-5-5-5-5-5-5-5-5-5-5-5-5-5-5-5-|-10-10------------------|

                                Verse
G|-------------10---10h12p10----|-------------10--10-10----------------10--10-10---|
D|--------------------------12\-|----------------------12-----------------------12-|
A|-------10h12------------------|-------10h12--------------------10h12-------------|
E|-10-10------------------------|-10-10--------------------10-10-------------------|

                                                    Pre-Chorus
G|-------------10--10-10----------------10--10-10---|-----5-----------5-------|
D|----------------------12-----------------------12-|---------7\---------7\---|
A|-------10h12--------------------10h12-------------|-0-0---------0-0---------|
E|-10-10--------------------10-10-------------------|-----------------------3-|

 Chorus                      Post-Chorus
G|---------------------------|-------------10---------------------10-------|
D|---------------------------|------------------12\--------------------12\-|
A|---------------------------|-------10h12------------------10h12----------|
E|-7-7-7-7-7-7-7-5-3-3-3-3/5-|-10-10------------------10-10----------------|


G|-------------10---------------------10---10h12p10h12p10----|
D|------------------12\----------------------------------12\-|
A|-------10h12------------------10h12------------------------|
E|-10-10------------------10-10------------------------------|

 Outro
G|-----------------------------------------------------------------|
D|-----------------------------------------------------------------|Repeat
A|-5-5-5-5-5-5-5-5-5-5-5-5-5-5-5-5-5-5-5-5-5-5-5-5-5-5-5-5-5-5-5-5-|Until
E|-----------------------------------------------------------------|End

Do This at the Very End as Song Fades Out
G|-------10------------10------------10------------10-----|
D|----------12\-----------12\-----------12\-----------12\-|
A|--------------------------------------------------------|
E|-10-10---------10-10---------10-10---------10-10--------|

| /  slide up
| \  slide down
| h  hammer-on
| p  pull-off
| ~  let note ring
| +  harmonic
| x  Mute note
===============================================================================
            

comments powered by Disqus
↑ Back to top | Beatles Bass for Come Together. Lyrics for acoustic guitar and electric guitar. Tablatures and chords are parodies/interpretations of the original songs. You may use it for private study, scholarship, research or language learning purposes only