» » »

Beatles, Come Together Bass tabs (ver.1)

Artists:  A B C D E F G H I J K L M N O P Q R S T U V W X Y Z # 

Come Together Bass tabs (ver.1)

Beatles Tabs
 Rating:
4/5 (4 votes)
Come Together  lessons Tabs too difficult? Try these video lessons and learn fast
                (2)
Here is come together.

 Riff1
G|--------------10~----|
D|------------------12~|
A|--------10h12--------|
E|-10-10---------------|

 Riff2          2x
G|---------------|-----------|
D|---------------|-----------|
A|------12\15----|-----------|
E|-5-5--------17-|-3~--------|

 Chorus
G|--------------------------|
D|--------------------------|
A|--------------------------|
E|-7-7-7-7-7-7-5--3-3-3-3-5-|

 Guitar solo              4x
G|-------------------------|-----------------|
D|-------------------------|-----------------|
A|-------------------------|-----------------|
E|-10-10-10-10-10-10-10-10-|-5-5-5-5-5-5-5-5-|

 Outro
G|-------------------------|
D|-------------------------|
A|-------------------------|
E|-10-10-10-10-10-10-10-10-|

   ORDER
   Riff1 8x
   Riff2 1x
   Riff1 8x
   Riff2 1x
   Chorus 1x
   Riff1 8x
   Riff2 1x
   Chorus
   Riff1 4x
   Guitar solo
   Riff1 6x
   Riff2 1x
   Chorus
   Riff1 2x
   Outro

There could be some some mistakes in the order of the riffs.Anyway,it should be easy
to listen to the song and find out how to play the parts.
            
Submit corrections

comments powered by Disqus
↑ Back to top | Beatles Bass for Come Together. Lyrics for acoustic guitar and electric guitar. Tablatures and chords are parodies/interpretations of the original songs. You may use it for private study, scholarship, research or language learning purposes only