» » »

Come Together Bass tabs (ver.11)

Artists:  A B C D E F G H I J K L M N O P Q R S T U V W X Y Z # 

Come Together Bass tabs (ver.11)

Beatles
Rating:
0/5 (0 votes)

Hard to play? Try these video lessons and learn fast.
                the beatles
come together


i seen some of the other tabs and they were just really bad so i tabbed this,i got it
out of a bass book with over 200 other songs and this was in it,so i decided to share
with all you pimped out bass players out there.



intro: (shoot me.....shoot me...and so on)
    *= hold this note for 2 counts  /=hammer-on up  \=slide down
g|-----------10*-------------||
d|---------------------------|| play 4 times for the intro
a|--5--5/12------------12\---||
e|---------------------------||

verse:
g|------------------------------------------------------------------------||
d|-----------10*----------play four times---------10*--------play---------||
a|--5--5/12---------12\-----then this------0--0--------12\---two-times----||
e|------------------------------------------------------------------------||

then after two times off the second part the pre-chorus:
(got to be a joker he just do what he please....)
g|-------||  
d|-------||     **= hold for 3 to 4 counts
a|-------||
e|--3**--|| 

chorus-break:
g|--------------10*-------------||
d|------------------------------|| play 2 times
a|--5--5-10/12------------12\---||
e|------------------------------||

then play verse over

chorus:
(come together......right now..over me)
g|------------------------------||
d|------------------------------||
a|--2-2-2-2-2-2-0-0----------0--||
e|------------------3-3-3-3-----||

chorus-break:
g|--------------10*----------------------------------10*-10/12-10/12-10-||
d|-------------------------(play 3times)--------------------------------||
a|--5--5-10/12---------12\----------------5--5-10/12--------------------||
e|----------------------------------------------------------------------||

play verse

then chorus with pre-chorus to keyboard solo:
g|------------------------------------------10*----------------10---10/12-||
d|----------------------------------------------12\-----------------------||
a|--2-2-2-2-2-2-0-0-----------0--5-5-10/12----------5-5-10/12-------------||
e|-------------------3-3-3-3----------------------------------------------||

play this during the keyboard solo:
g|-------------------------------------------------------------------------|
d|-------------------------------------------------------------------------|
a|-55555555555555555555555555555555----------------------------------------|
e|----------------------------------55555555555555555555555555555555-------|
                                                   (next line to the rest)
g|-----------10*----------------------10/12-10/12-10/12--10-||
d|----------------------------------------------------------||
a|--5--5/12------------12\---5--5/12------------------------||
e|----------------------------------------------------------||

then verse
then chorus 


chorus-break:
g|--------------10*-------------------10*---------------10*-12-10-12\--||
d|---------------------------------------------------------------------||
a|--5--5-10/12-------12\---5--5-10/12------5--5-10/12------------------||
e|---------------------------------------------------------------------||

outro:
g|-----------------------------------------||
d|-----------------------------------------||
a|-55555555-4/5-5555-4/5-4/5-(play 1 time)-||
e|-----------------------------------------||

then play this for the rest of the outro
g|------------------------------------------||
d|------------------------------------------||play 10 times and fade out
a|-4/5-555-55-4/5-4/5--4/5-555--55-4/5-4/5--||
e|------------------------------------------||

i know it seems hard to read but this is the real thing,so take your time with it and
listen to the cd a couple of times to get the groove of the bass because everynote up
there is played so dont worry about it. hope you all enjoy!!
            
Hard to play? Try these video lessons and learn fast. | Correct




comments powered by Disqus
↑ Back to top | Tablatures and chords are parodies/interpretations of the original songs. You may use it for private study, scholarship, research or language learning purposes only