» » »

Can't Buy Me Love Tabs (ver.3)

Artists:  A B C D E F G H I J K L M N O P Q R S T U V W X Y Z # 

Can't Buy Me Love Tabs (ver.3)

Beatles
Rating:
0/5 (0 votes)

Hard to play? Try these video lessons and learn fast.
                PROPS GO TO: Jaspion

E]-------------------------------------------------------------------------------------
B]-------------------------------------------------------------------------------------
G]------8--10b12--10b12--10b12--10-8------8--10b12--10b12--10b12--10-8-----------------
D]--10--------------------------------10--------------------------------10-8-----------
A]----------------------------------------------------------------------------10-8-6---
E]-------------------------------------------------------------------------------------

E]-------------------------------------------------------------------------------------
B]-------------------------------------------------------------------------------------
G]-------------------10b12-10b12-10b12-10-8--------------------------------------------
D]-10-10-10-10-8-10--------------------------10p8--------------------------------8-----
A]-10-10-10-10-8-10--------------------------------8/10-8/10-10-8-6-8-6----8/10----8/6-
E]-----------------------------------------------------------------------8-------------

E]-------------------------------------------------------------------------------------
B]-------------------------------------------------------------------------------------
G]-------------------------------------------------------------------------------------
D]-------------------------------------------------------------------------------------
A]-------------------------------------------------------------------------------------
E]-8-6/8-------------------------------------------------------------------------------

end. This solo has 17 sec. Jaspion, 16/03/03.:
            
Hard to play? Try these video lessons and learn fast. | Correct




comments powered by Disqus
↑ Back to top | Tablatures and chords are parodies/interpretations of the original songs. You may use it for private study, scholarship, research or language learning purposes only