» » »

Beatles, Can't Buy Me Love Bass tabs (ver.1)

Artists:  A B C D E F G H I J K L M N O P Q R S T U V W X Y Z # 

Can't Buy Me Love Bass tabs (ver.1)

Beatles Tabs
 Rating:
4/5 (4 votes)
Can't Buy Me Love lessons Tabs too difficult? Try these video lessons and learn fast
                Can't Buy Me Love
The Beatles
Written by John Lennon and Paul McCartney; released on single "Can't Buy Me 
Love / You Can't Do That" and on "A Hard Day's Night" album.

A great rock and roll song by Paul :-)

Intro:
G|------ ------ ------ ------|------ ------ ------ ------|
D|---------------------------|---------------------------|
A|---------------------------|---------------------------|
E|---------------------------|---------------------------|
                                     Can't  buy me     love,


G|------ ------ ------ ------|------ ------ ------ ------|
D|---------------------------|7------7------7------7-----|
A|7------7------7------7-----|---------------------------|
E|---------------------------|---------------------------|
                                                       love,


G|------ ------ ------ ------|------ ------ ------ ------|
D|---------------------------|7------7------7------7-----|
A|7------7------7------7-----|---------------------------|
E|---------------------------|---------------------------|
                                     Can't  buy me     love,


G|------ ------ ------ ------|------ ------ ------ ------|
D|---------------------------|5------5------5------5-----|
A|5------5------5------5-----|---------------------------|
E|---------------------------|---------------------------|
                                                       I'll

Verse:
G|------ ------ ------ ------|------ ------ ------ ------|
D|---------------------------|---------------------------|
A|3------3-------------------|3------3-------------------|
E|--------------3------3-----|--------------3------3-----|
  buy    you a  diamond    ring,  my     friend,   if  it


G|------ ------ ------ ------|------ ------ ------ ------|
D|---------------------------|---------------------------|
A|3------3-------------------|3------3-------------3-----|
E|--------------3------3-----|--------------3------------|
  makes  you    feel all   right                       I'll


G|------ ------ ------ ------|------ ------ ------ ------|
D|3------3-------------------|3------3-------------3-----|
A|--------------3------3-----|--------------3------------|
E|---------------------------|---------------------------|
  get    you    a - ny  -  thing, my     friend,   if  it


G|------ ------ ------ ------|------ ------ ------ ------|
D|---------------------------|---------------------------|
A|3------3-------------------|3------3-------------3-----|
E|--------------3------3-----|--------------3------------|
  makes  you    feel all   right                       Cause


G|------ ------ ------ ------|------ ------ ------ ------|
D|5------5-------------5-----|3--------------------------|
A|--------------5------------|---------------------------|
E|---------------------------|---------------------------|
  I      don't  care   too        much   for money,


G|------ ------ ------ ------|------ ------ ------ ------|
D|3------3------3------3-----|---------------------------|
A|---------------------------|3------3-------------3-----|
E|---------------------------|--------------3------------|
  money  can't  buy me     love                        I'll

Verse:
G|------ ------ ------ ------|------ ------ ------ ------|
D|---------------------------|---------------------------|
A|3------3-------------1-----|3------3-------------------|
E|--------------3------------|--------------3------3-----|
  give   you    all I've   got    to     give,     if  you


G|------ ------ ------ ------|------ ------ ------ ------|
D|---------------------------|---------------------------|
A|3------3-------------------|3------3-------------3-----|
E|--------------3------3-----|--------------3------------|
  say    you    love me    too                         I


G|------ ------ ------ ------|------ ------ ------ ------|
D|3------3-------------------|3------3-------------3-----|
A|--------------3------3-----|--------------3------------|
E|---------------------------|---------------------------|
  may    not    have a     lot    to     give,  but    I've
                                                   what

G|------ ------ ------ ------|------ ------ ------ ------|
D|---------------------------|---------------------------|
A|3------3-------------------|3------3-------------3-----|
E|--------------3------3-----|--------------3------------|
  got    I'll   give to    you                         I


G|------ ------ ------ ------|------ ------ ------ ------|
D|5------5-------------5-----|3--------------------------|
A|--------------5------------|---------------------------|
E|---------------------------|---------------------------|
         don't  care   too        much   for money,


G|------ ------ ------ ------|------ ------ ------ ------|
D|3------3------3------3-----|---------------------------|
A|---------------------------|3------3------3------3-----|
E|---------------------------|---------------------------|
  money  can't  buy me     love      Can't  buy me     love,

Refrain:
G|------ ------ ------ ------|2----- 2----- 2----- 2-----|
D|2------2------2------2-----|---------------------------|
A|---------------------------|---------------------------|
E|---------------------------|---------------------------|
                                                       Eve-


G|------ ------ ------ ------|------ ------ ------ ------|
D|---------------------------|---------------------------|
A|3------3-------------1-----|3------3-------------1-----|
E|--------------3------------|--------------3------------|
      ry-bo- dy tells me   so        Can't  buy me     love,


G|------ ------ ------ ------|2----- 2----- 2----- 2-----|
D|2------2------2------2-----|---------------------------|
A|---------------------------|---------------------------|
E|---------------------------|---------------------------|
 


G|------ ------ ------ ------|------ ------ ------ ------|
D|---------------------------|5------5------5------5-----|
A|5------5------5------5-----|---------------------------|
E|---------------------------|---------------------------|
  no, no,    no,           no!                         Say

Verse:
G|------ ------ ------ ------|------ ------ ------ ------|
D|---------------------------|---------------------------|
A|3------3-------------1-----|3------3-------------1-----|
E|--------------3------------|--------------3------------|
      you don't need   no     diamond    rings,        and


G|------ ------ ------ ------|------ ------ ------ ------|
D|---------------------------|---------------------------|
A|3------3-------------1-----|3------3-------------1-----|
E|--------------3------------|--------------3------------|
  I'll   be     sa- tis -  fied                        Tell


G|------ ------ ------ ------|------ ------ ------ ------|
D|3------3-------------------|3------3-------------3-----|
A|--------------3------3-----|--------------3------------|
E|---------------------------|---------------------------|
      me that you want the    kinds of   things        that


G|------ ------ ------ ------|------ ------ ------ ------|
D|---------------------------|---------------------------|
A|3------3-------------------|3------3-------------3-----|
E|--------------3------3-----|--------------3------------|
  money      just   can't  buy                         I


G|------ ------ ------ ------|------ ------ ------ ------|
D|5------5-------------5-----|3--------------------------|
A|--------------5------------|---------------------------|
E|---------------------------|---------------------------|
         don't  care   too        much   for money,


G|------ ------ ------ ------|------ ------ ------ ------|
D|3------3------3------3-----|---------------------------|
A|---------------------------|3------3-------------------|
E|---------------------------|--------------3------3-----|
  money  can't  buy me     love


G|------ ------ ------ ------|
D|---------------------------|
A|3--------------------1-----|
E|-------3------3------------|


Break (solo):
G|------ ------ ------ ------|------ ------ ------ ------|
D|---------------------------|---------------------------|
A|3------3-------------1-----|3------3-------------1-----|
E|--------------3------------|--------------3------------|
 


G|------ ------ ------ ------|------ ------ ------ ------|
D|---------------------------|-------0------1------2-----|
A|3------3-------------------|3--------------------------|
E|--------------3------3-----|---------------------------|
 


G|------ ------ ------ ------|------ ------ ------ ------|
D|3--------------------------|3------3-------------5-----|
A|--------------3------------|--------------3------------|
E|---------------------------|---------------------------|
 


G|------ ------ ------ ------|------ ------ ------ ------|
D|---------------------------|---------------------------|
A|3------3-------------1-----|3------3-------------------|
E|--------------3------------|--------------3------6-----|
 


G|------ ------ ------ ------|------ ------ ------ ------|
D|5------5-------------5-----|3------3-------------5-----|
A|--------------5------------|--------------3------------|
E|---------------------------|---------------------------|
 


G|------ ------ ------ ------|------ ------ ------ ------|
D|---------------------------|---------------------------|
A|3--------------------------|3--------------------3-----|
E|--------------3------------|--------------3------------|
                                     Can't  buy me     love,

Refrain:
G|------ ------ ------ ------|2----- 2----- ------ 2-----|
D|2------2-------------2-----|--------------2------------|
A|--------------2------------|---------------------------|
E|---------------------------|---------------------------|
                                                       Eve-


G|------ ------ ------ ------|------ ------ ------ ------|
D|---------------------------|---------------------------|
A|3------3-------------------|3------3-------------3-----|
E|--------------3------3-----|--------------3------------|
      ry-bo- dy tells me   so        Can't  buy me     love,


G|------ ------ ------ ------|2----- 2----- ------ 2-----|
D|2------2-------------2-----|--------------2------------|
A|--------------2------------|---------------------------|
E|---------------------------|---------------------------|
 


G|------ ------ ------ ------|------ ------ ------ ------|
D|---------------------------|5------5------5------5-----|
A|5------5------5------5-----|---------------------------|
E|---------------------------|---------------------------|
  no, no,    no,           no!                         Say

Verse:
G|------ ------ ------ ------|------ ------ ------ ------|
D|---------------------------|---------------------------|
A|3------3-------------1-----|3------3-------------1-----|
E|--------------3------------|--------------3------------|
      you don't need   no     diamond    rings,        and


G|------ ------ ------ ------|------ ------ ------ ------|
D|---------------------------|---------------------------|
A|3------3-------------1-----|3----------3---------------|
E|--------------3------------|--------------3------------|
  I'll   be     sa- tis -  fied                        Tell


G|------ ------ ------ ------|------ ------ ------ ------|
D|3------3-------------------|3------3-------------3-----|
A|--------------3------3-----|--------------3------------|
E|---------------------------|---------------------------|
      me that you want the    kinds of   things        that


G|------ ------ ------ ------|------ ------ ------ ------|
D|---------------------------|---------------------------|
A|3------3-------------------|3------3-------------------|
E|--------------3------3-----|--------------3------------|
  money      just   can't  buy                         I


G|------ ------ ------ ------|------ ------ ------ ------|
D|5------5-------------5-----|3--------------------------|
A|--------------5------------|---------------------------|
E|---------------------------|---------------------------|
         don't  care   too        much   for money,


G|------ ------ ------ ------|------ ------ ------ ------|
D|3------3-------------3-----|---------------------------|
A|--------------3------------|3------3-------------3-----|
E|---------------------------|--------------3------------|
  money  can't  buy me     love      Can't  buy me     love,

Outro:
G|------ ------ ------ ------|2----- 2----- ------ 2-----|
D|2------2-------------2-----|--------------2------------|
A|--------------2------------|---------------------------|
E|---------------------------|---------------------------|
                                                       love,


G|------ ------ ------ ------|2----- 2----- ------ 2-----|
D|2------2-------------2-----|--------------2------------|
A|--------------2------------|---------------------------|
E|---------------------------|---------------------------|
                                     Can't  buy me     love,


G|------ ------ ------ ------|------ ------ ------ ------|
D|---------------------------|5------5------5------5-----|
A|5------5------5------5-----|---------------------------|
E|---------------------------|---------------------------|
                                                       oh!


G|------ ------ ------ ------|------ ------ ------ ------|
D|---------------------------|---------------------------|
A|3------3-------------------|3--------------------------|
E|--------------3------3-----|---------------------------|

Please e-mail me for any corrections.
            
Submit corrections

comments powered by Disqus
↑ Back to top | Beatles Bass for Can't Buy Me Love. Lyrics for acoustic guitar and electric guitar. Tablatures and chords are parodies/interpretations of the original songs. You may use it for private study, scholarship, research or language learning purposes only