» » »

Beatles, Black Bird Tabs (ver.1)

Artists:  A B C D E F G H I J K L M N O P Q R S T U V W X Y Z # 

Black Bird Tabs (ver.1)

Beatles Tabs
 Rating:
4/5 (4 votes)
Black Bird lessons Tabs too difficult? Try these video lessons and learn fast
1
                BLACKBIRD (written down in Lund, Sweden Dec 5, 1994)
                   (The corrected version)
                             



E--------------------------------------------------------------
B----0----1---3----12---12-----12--12----12----12--------------
G------0----0---0-----0-----0----------0-----0-----------------
D--------------------------------------------------------------
A---------0---2----10--------------10--------------------------
E----3---------------------------------------------------------


same thing again..

E--------------------------------------------------------------
B----0----1---3----12---12-----12--12----12----12--------------
G------0----0---0-----0-----0----------0-----0-----------------
D--------------------------------------------------------------
A---------0---2----10--------------10--------------------------
E----3---------------------------------------------------------



E---0----3---2---5---3---3---3-3---3---3-2---3-----------------
B-----0----0---0---4---0---0-----0---0-----0---5---5---5-------
G------------------------------------------------0---0---------
D--------2---0---4---2---------1---------0---------------------
A---3----------------------------------------2-3---------------
E--------------------------------------------------------------



E--------------------------------------------------------------
B---4---4---4--3---3---3--2---2---2-1---1---1-0---0---0--------
G-----0---0------0---0------0---0-----0---0-----0---0----------
D--------------------------------------------------------------
A---3----------2----------0---------2--------------------------
E---------------------------------------------3----------------



E--------------------------------------------------------------
B---10----8-----6----5----3---3---3-5---5---5------------------
G------0-----0-----0---0----0---0-----0---0--------------------
D--------------------------------------------------------------
A---8-----7-----5----3----1---------3--------------------------
E--------------------------------------------------------------

E--------------------------------------------------------------
B---10----8-----6----5----3---3---3-2---2---1---1---1-0---0---0
G------0-----0-----0---0----0---0-----0---0---0---0-----0---0--
D--------------------------------------------------------------
A---8-----7-----5----3----1---------0--------------------------
E-------------------------------------------2---------3--------



Then it starts again.
The song consists of these parts in a mix I can't remember
exactly right now but listen to the recording and I think
you will find out.
As always, the timing isn't in the tab, just the fingering.


PS Please write back when you have received this
I would like to exchange more mails DS

So long, Lars
            
Submit corrections

comments powered by Disqus
↑ Back to top | Beatles Tabs for Black Bird. Lyrics for acoustic guitar and electric guitar. 1 Tablatures and chords are parodies/interpretations of the original songs. You may use it for private study, scholarship, research or language learning purposes only