» » »

Beatles, Birthday Tabs (ver.8)

Artists:  A B C D E F G H I J K L M N O P Q R S T U V W X Y Z # 

Birthday Tabs (ver.8)

Beatles Tabs
 Rating:
4/5 (4 votes)
Birthday lessons Tabs too difficult? Try these video lessons and learn fast
                The Beatles


Repeat two times (x2)
    A			      A
e---------------------------------------------------------------|
b---------5—7b8r7--5---------------5-7b8r7--5-------------------|
go------6------------------------6------------------------------|
do--7-7--------------7-------7-7--------------7-----------------|
a---------------------------------------------------------------|
E---------------------------------------------------------------|

   D					A
e---------------------------------------------------------------|
b-----------10—12b13r12--10----------------5-7b8r7--5-----------|
g--------11------------------------------6----------------------|
d--12-12--------------------12-------7-7--------------7---------|
a---------------------------------------------------------------|
E---------------------------------------------------------------|

    E					A
e----------------------------------------------------------------|
b-----------12—14b15r14--12----------------5-7b8r7--5------------|
g--------13------------------------------6-----------------------|o
d--14-14--------------------14-------7-7--------------7----------|o
a----------------------------------------------------------------|
E----------------------------------------------------------------|

After second time, drum interlude for 8 bars, then……

Repeat eight time (x8)
    E
e----------------------------------------------------------------|
b----------------------------------------------------------------|
g------9-------9-------9-------9-------9-------9------9------9---|o
d------9-------9-------9-------9-------9-------9------9------9---|o
a------7-------7-------7-------7-------7-------7------7------7---|
E----------------------------------------------------------------|

Repeat four times (x4)
    C
e---------------------------------------------------------------|
b---------------------------------------------------------------|
go-----5-------5-------5-------5-------5-------5------5------5--|
do-----5-------5-------5-------5-------5-------5------5------5--|
a------3-------3-------3-------3-------3-------3------3------3--|
E---------------------------------------------------------------|

    G
e----------------------------------------------------------------|
b----------------------------------------------------------------|
g----------------------------------------------------------------|o
d------5------5------5------5------5------5------5------5--------|o
a------5------5------5------5------5------5------5------5--------|
E------3------3------3------3------3------3------3------3--------|

Repeat two time (x2)
    E
e----------------------------------------------------------------|
b----------------------------------------------------------------|
go-----9-------9-------9-------9-------9-------9------9------9---|o
do-----9-------9-------9-------9-------9-------9------9------9---|o
a------7-------7-------7-------7-------7-------7------7------7---|
E----------------------------------------------------------------|

Solo
    A			      A
e---------------------------------------------------------------|
b---------5—7b8r7--5---------------5-7b8r7--5-------------------|
g-------6------------------------6------------------------------|
d---7-7--------------7-------7-7--------------7-----------------|
a---------------------------------------------------------------|
E---------------------------------------------------------------|

   D					A
e---------------------------------------------------------------|
b-----------10—12b13r12--10----------------5-7b8r7--5-----------|
g--------11------------------------------6----------------------|
d--12-12--------------------12-------7-7--------------7---------|
a---------------------------------------------------------------|
E---------------------------------------------------------------|

    E					A
e---------------------------------------------------------------|
b-----------12—14b15r14--12----------------5-7b8r7--5-----------|
g--------13------------------------------6----------------------|
d--14-14--------------------14-------7-7--------------7---------|
a---------------------------------------------------------------|
E---------------------------------------------------------------|

   A
e--5-------5-----------------------5--------5---8---10b11r10--8----------|
b—---5--8-----8-----------------------5--8-----------------------10—8~~~-|
g----------------7b8r7---5-----------------------------------------------|
d---------------------------7—5~~~---------------------------------------|
a------------------------------------------------------------------------|
E------------------------------------------------------------------------|

Repeat four times (x4)
       C
e---------------------------------------------------------------|
b---------------------------------------------------------------|
go-----5-------5-------5-------5-------5-------5------5------5--|
do-----5-------5-------5-------5-------5-------5------5------5--|
a------3-------3-------3-------3-------3-------3------3------3--|
E---------------------------------------------------------------|

      G
e----------------------------------------------------------------|
b----------------------------------------------------------------|
g----------------------------------------------------------------|o
d------5------5------5------5------5------5------5------5--------|o
a------5------5------5------5------5------5------5------5--------|
E------3------3------3------3------3------3------3------3--------|

Repeat two time (x2)
    E
e----------------------------------------------------------------|
b----------------------------------------------------------------|
go-----9-------9-------9-------9-------9-------9------9------9---|o
do-----9-------9-------9-------9-------9-------9------9------9---|o
a------7-------7-------7-------7-------7-------7------7------7---|
E----------------------------------------------------------------|

    A			      A
e---------------------------------------------------------------|
b---------5—7b8r7--5---------------5-7b8r7--5-------------------|
g-------6------------------------6------------------------------|
d---7-7--------------7-------7-7--------------7-----------------|
a---------------------------------------------------------------|
E---------------------------------------------------------------|

   D					A
e---------------------------------------------------------------|
b-----------10—12b13r12--10----------------5-7b8r7--5-----------|
g--------11------------------------------6----------------------|
d--12-12--------------------12-------7-7--------------7---------|
a---------------------------------------------------------------|
E---------------------------------------------------------------|

    E					A
e---------------------------------------------------------------|
b-----------12—14b15r14--12----------------5-7b8r7--5-----------|
g--------13------------------------------6----------------------|
d--14-14--------------------14-------7-7------------------------|
a---------------------------------------------------------------|
E---------------------------------------------------------------|

    A			      A
e---------------------------------------------------------------|
b---------5—7b8r7--5---------------5-7b8r7--5-------------------|
go------6------------------------6------------------------------|
do--7-7----------------------7-7----------------------7---------|
a-----------------------------------------------------7—(Hold)--|
E-----------------------------------------------------5---------|

Enjoy!
            
Submit corrections

comments powered by Disqus
↑ Back to top | Beatles Tabs for Birthday. Lyrics for acoustic guitar and electric guitar. Tablatures and chords are parodies/interpretations of the original songs. You may use it for private study, scholarship, research or language learning purposes only