» » »

Beatles, Birthday Bass tabs (ver.2)

Artists:  A B C D E F G H I J K L M N O P Q R S T U V W X Y Z # 

Birthday Bass tabs (ver.2)

Beatles Tabs
 Rating:
4/5 (4 votes)
Birthday lessons Tabs too difficult? Try these video lessons and learn fast
                g---------------------------|
d---------5-4-------------4-|
a-----4-7-----7---4-4-7-7---|
e-5-5-----------5-----------| 


g---------5-4-------------4-|
d-----4-7-----7---4-4-7-7---|      
a-5-5-----------5-----------|     
e---------------------------|     
                                   
g---------7-6-------------6-|      
d-----6-9-----9---6-6-9-9---|
a-7-7-----------7-----------|
e---------------------------|


g---------------------------------|
d-----2-2-3-3-4-4-5-5-4-4-3-3-2-2-|
a-3-3-----------------------------|
e---------------------------------|


g-2---0-2-0-----------|
d---2-------2-0-------|
a---------------3-0---|
e-------------------3-|


g-------2-5-9-5-7-5-2-0-|
d-----2-----------------|
a---5-------------------|
e-5---------------------|
            
Submit corrections

comments powered by Disqus
↑ Back to top | Beatles Bass for Birthday. Lyrics for acoustic guitar and electric guitar. Tablatures and chords are parodies/interpretations of the original songs. You may use it for private study, scholarship, research or language learning purposes only