» » »

Beatles, Birthday Tabs (ver.4)

Artists:  A B C D E F G H I J K L M N O P Q R S T U V W X Y Z # 

Birthday Tabs (ver.4)

Beatles Tabs
 Rating:
4/5 (4 votes)
Birthday lessons Tabs too difficult? Try these video lessons and learn fast
1
                Tuning: Standard
  
  Riff 1:
e|-------------------|
B|-------------------|
G|-------------------|
D|---------3/5-4-----|
A|-----4-7-------7---|
E|-5-5-------------5-|
  Riff 1:
e|-------------------|
B|-------------------|
G|-------------------|
D|---------3/5-4-----|
A|-----4-7-------7---|
E|-5-5-------------5-|
  Riff 2:
e|-------------------|
B|-------------------|
G|---------3/5-4-----|
D|-----4-7-------7---|
A|-5-5-------------5-|
E|-------------------|
  Riff 1:
e|-------------------|
B|-------------------|
G|-------------------|
D|---------3/5-4-----|
A|-----4-7-------7---|
E|-5-5-------------5-|
  Riff 3:
e|-------------------|
B|-------------------|
G|---------5/7-6-----|
D|-----6-9-------9---|
A|-7-7-------------7-|
E|-------------------|
  Riff 1:
e|-------------------|
B|-------------------|
G|-------------------|
D|---------3/5-4-----| Repeat over and over...
A|-----4-7-------7---|
E|-5-5-------------5-|
 
  Solo:
e|---------3-2-----| 
B|-----2-5-----5---| I split the solo up so 
G|-2-2-----------2-| it is easier to read.
D|-----------------| 
A|-----------------| 
E|-----------------| 

e|----------8-7------| 
B|-----7-10-----10---| 
G|-7-7-------------7-| 
D|-------------------| 
A|-------------------| 
E|-------------------| 

e|----------10-9------| 
B|-----9-12------12---| 
G|-9-9--------------9-| 
D|--------------------| 
A|--------------------| 
E|--------------------| 

e|-5---3-5-3-----------| 
B|---5-------5-3-1-----| 
G|-----------------2---| 
D|-------------------5-|
A|---------------------| 
E|---------------------| 

e|-------5-8-12-8-10-7-5-3-|
B|---2-5-------------------|
G|-2-----------------------|
D|-------------------------|
A|-------------------------|
E|-------------------------|

A You say it's your birthday 
A It's my birthday too yeah
D They say it's your birthday 
A We're gonna have a good time 
E I'm glad it's your birthday 
A Happy birthday to you 
E Yes we're going to a party party 
E Yes we're going to a party party 
E Yes we're going to a party party 
C G I would like you to dance 
C G (Birthday) Take a cha - cha -cha chance 
C G (Birthday) I would like you to dance 
C G (Birthday) Dance E 
Instrumental
A You say it's your birthday
A It's my birthday too yeah 
D They say it's your birthday 
A We're gonna have a good time 
E I'm glad it's your birthday 
A Happy birthday to you 

Second Version

  Riff 1:
e|---------1/3-2-----| 
B|-----2-5-------5---| 
G|-2-2-------------2-| 
D|-------------------| 
A|-------------------| 
E|-------------------| 

Riff 1:
e|---------1/3-2-----| 
B|-----2-5-------5---| 
G|-2-2-------------2-| 
D|-------------------| 
A|-------------------| 
E|-------------------| 

  Riff 2:
e|-------5-6/8-7-5---| 
B|-----7-------------| 
G|-7-7-------------7-| 
D|-------------------|
A|-------------------|
E|-------------------| 

Riff 1:
e|---------1/3-2-----| 
B|-----2-5-------5---| 
G|-2-2-------------2-| 
D|-------------------| 
A|-------------------| 
E|-------------------| 

 Riff 3:
e|-------7-8/10-9-7---| 
B|-----9--------------| 
G|-9-9--------------9-| 
D|--------------------| 
A|--------------------| 
E|--------------------| 

Riff 1:
e|---------1/3-2-----| 
B|-----2-5-------5---| 
G|-2-2-------------2-| Repeat over and over...
D|-------------------| 
A|-------------------| 
E|-------------------| 

 Solo:
e|---------3-2-----| 
B|-----2-5-----5---| I split the solo up so 
G|-2-2-----------2-| it is easier to read.
D|-----------------| 
A|-----------------| 
E|-----------------| 

e|----------8-7------| 
B|-----7-10-----10---| 
G|-7-7-------------7-| 
D|-------------------| 
A|-------------------| 
E|-------------------| 

e|----------10-9------| 
B|-----9-12------12---| 
G|-9-9--------------9-| 
D|--------------------| 
A|--------------------| 
E|--------------------| 

e|-5---3-5-3-----------| 
B|---5-------5-3-1-----| 
G|-----------------2---| 
D|-------------------5-|
A|---------------------| 
E|---------------------| 

e|-------5-8-12-8-10-7-5-3-|
B|---2-5-------------------|
G|-2-----------------------|
D|-------------------------|
A|-------------------------|
E|-------------------------|

A You say it's your birthday 
A It's my birthday too yeah
D They say it's your birthday 
A We're gonna have a good time 
E I'm glad it's your birthday 
A Happy birthday to you 
E Yes we're going to a party party 
E Yes we're going to a party party 
E Yes we're going to a party party 
C G I would like you to dance 
C G (Birthday) Take a cha - cha -cha chance 
C G (Birthday) I would like you to dance 
C G (Birthday) Dance E 
Instrumental
A You say it's your birthday
A It's my birthday too yeah 
D They say it's your birthday 
A We're gonna have a good time 
E I'm glad it's your birthday 
A Happy birthday to you
            
Submit corrections

comments powered by Disqus
↑ Back to top | Beatles Tabs for Birthday. Lyrics for acoustic guitar and electric guitar. 1 Tablatures and chords are parodies/interpretations of the original songs. You may use it for private study, scholarship, research or language learning purposes only