>
 >
Being For The Benefit Of Mr. Kite

Being For The Benefit Of Mr. Kite Bass Tabs

Beatles - Being For The Benefit Of Mr. Kite chords, tabs, tablatures, lyrics

Guitar lessons | Add/correct | Request | Top 50 tabs Artists:  A B C D E F G H I J K L M N O P Q R S T U V W X Y Z 0-9

Being For The Benefit Of Mr. Kite Bass Tabs – Beatles

CD, Sheet music, Poster

Do you like Being For The Benefit Of Mr. Kite? Share with your friends now
Bass TabsChordsTabsTabs v2
G|--------------------------------|--------------------------------|
D|8---8---8-------8---8---8---5---|7---7---7---7---7-------7\------|
A|--------------------------------|--------------------------------|
E|--------------------------------|--------------------------------|         

G|--------------------------------||-------------------------------|
D|0-------------------------------||-------------------------------|
A|--------------------------------||3------------------------------|
E|----------------3---------------||----------------3--------------|

G|--------------------------------|--------------------------------|
D|------------------------3-------|5-------5-------5---------------|
A|1-----------3---5---------------|--------------------5-------5---|
E|--------------------------------|------------------------7-------|       

G|--------------------------------|--------------------------------|
D|------------------------5-------|------------------------5---5---|
A|----0---2---3---5---------------|3-------5-------6---------------|
E|3-------------------------------|--------------------------------|

G|--------------------------------|--------------------------------|
D|----------------0-------3---3---|7-------7-------7---------------|
A|1-------3-----------------------|--------------------7-------7---|
E|--------------------------------|------------------------9-------|    

G|--------------------------------|--------5---7--7/9------7---6---|
D|------------------------5---7---|8-------------------------------|
A|5-------7-------8---------------|--------------------------------|
E|--------------------------------|--------------------------------|

G|7-------5-----------------------|--------5---7--7/9------7---6---|
D|----------------8-------7-------|8-------------------------------|
A|--------------------------------|--------------------------------|
E|--------------------------------|--------------------------------|     

G|7-------5-----------------------|--------7-----------------------|
D|----------------8-------7-------|8-----------8---7-------7\------|
A|--------------------------------|--------------------------------|
E|--------------------------------|--------------------------------|      

G|--------------------------------|--------------------------------|
D|0-------------------------------|--------------------------------|
A|--------------------------------|3-------------------------------|
E|----------------3---------------|----------------3---------------|   

G|--------------------------------|--------------------------------|
D|------------------------3-------|5---------------5---------------|
A|1-----------3---5---------------|------------5-------5-------5---|
E|--------------------------------|------------------------7-------|

G|--------------------------------|--------------------------------|
D|------------------------5-------|------------------------5---5---|
A|----0---2---3---5---------------|3-------5-------6---------------|
E|3-------------------------------|--------------------------------|

G|--------------------------------|--------------------------------|
D|----------------0-------3---3---|7-------7-------7---------------|
A|1-------3-----------------------|--------------------7-------7---|
E|--------------------------------|------------------------9-------|

G|--------------------------------|--------5---7--7/9------7---6---|
D|------------------------5---7---|8-------------------------------|
A|5-------7-------8---------------|--------------------------------|
E|--------------------------------|--------------------------------|  

G|7-------5-----------------------|--------5---7--7/9------7---6---|
D|----------------8-------7-------|8-------------------------------|
A|--------------------------------|--------------------------------|
E|--------------------------------|--------------------------------|


G|------------------------|------------------------|
D|0-------2---3-------5---|--------------------5---|
A|------------------------|3-------5---7-----------|
E|------------------------|------------------------|

G|------------------------|------------------------|
D|7-----------7-------7---|----------------0---2---|
A|--------7---------7---7-|0-------0-2-4-----------|
E|------------------------|------------------------|

G|----------------0---2---|------------------------|
D|0-------2---3-----------|----------------5---7---|
A|------------------------|3-------5---7-----------|
E|------------------------|------------------------|

G|------------------------|------------------------|
D|9-----------9-------9---|----------------7---9---|
A|--------9---------9---9-|7-------9---10----------|
E|------------------------|------------------------|

G|------------------------|------------------------|
D|10--10--10--9---9\------|----------------7---9---|
A|--------------------5---|7-------9---10----------|
E|------------------------|------------------------|

G|------------------------|------------------------|
D|10----1210--9---9\--0---|2-----------------------|
A|------------------------|------------------------|
E|------------------------|------------------------|





Comments


Popular Beatles tabs & chords
Do You Want To Know A Secret Bass Tabs
Dont Let Me Down Bass Tabs
A Shot Of Rhythm And Blues Chords
All Ive Got To Do 3 Chords
Come Together Chords
Don't Ever Change Chords
Eight Days A Week 5 Chords
*You Know My Name Tabs
Blackbird 8 Tabs
Catswalk Tabs


Song lyrics



↑ Back to top | Tablatures and chords are parodies/interpretations of the original songs. You may use it for private study, scholarship, research or language learning purposes only
© 2014 AZChords.com Contact us | Privacy policy | DMCA | Add/correct tabs | Request tabs | Top 50 tabs