» » »

Beatles, Back In The U.S.S.R. Bass tabs (ver.2)

Artists:  A B C D E F G H I J K L M N O P Q R S T U V W X Y Z # 

Back In The U.S.S.R. Bass tabs (ver.2)

Beatles Tabs
 Rating:
4/5 (4 votes)
Back In The U.S.S.R. lessons Tabs too difficult? Try these video lessons and learn fast
                Intro
G:-----------------
D:-----------------
A:-----------------
E:-0-0-0-0-0-0-0-0- 4X, then

Verse
G:--------------------------------
D:-7-7-5-5-------------------7----
A:---------7-7-4-4-5-5-5-5-5---5-5
E:--------------------------------

G:--------------------------------
D:-----------5---------------7----
A:-3-3-3-3-3---3-3-5-5-5-5-5---5-5
E:--------------------------------
Play 2X, then

Chorus 1

G:--------------------------------------------------
D:-7-7-7-7-7-7-7-7----------------------------------
A:-----------------3-3-3-3-3-3-3-3-5-5-5-5-5-5-5---5
E:--------------------------------------------------

Verse Fill 1
G:--------------------------------
D:-7-7-7-7-7-7-7-7-7--------------
A:-------------------5-6-7---7-7-7
E:--------------------------------

Then Play the verse 2X, then

Chorus 2
G:--------------------------------------------------
D:-7-7-7-7-7-7-7-7----------------------------------
A:-----------------3-3-3-3-3-3-3-3-5-5-5-5-5-5-5---7
E:--------------------------------------------------

Pre-Bridge
G:---------------------------------
D:---------------------------------
A:---------------------------------
E:-5-5-5-5-5-5-5-5-5-5-5-5-5-5-5-5-
1X, then

Bridge
G:--------------------------------------------------
D:----------------------------------7-7-7-7-7-7-7-7-
A:-5-5-5-5-5-5-5-5-5-5-5-5-5-5-5-5------------------
E:--------------------------------------------------

G:-------------------------------------------------
D:-7-7-7-7-5-5-5-5---------------------------------
A:-----------------5-5-5-5-4-4-4-4-3-3-3-3-2-2-2-2-
E:-------------------------------------------------

G:-----------------------------------------------------------------
D:---------------------------------7-7-7-7-7-7-7-7-7-7-9-9---------
A:-7-7-7-7-7-7-7-7-5-5-5-5-5-5-5-5-------------------------7--7-7-7
E:-----------------------------------------------------------------
Play 1X, then

Play the Verse part 2X over guitar solo
Play Chorus 1 1X, then

Pre-Bridge 2
G:----------------------------------
D:-7-7-7-7-7-7-7-7-7-7-7-7-7-7-7-7-7
A:----------------------------------
E:----------------------------------
Play 1X, then

Play Bridge 1X
Play Verse 2X
Play Chorus 1 1X, then
            
Submit corrections

comments powered by Disqus
↑ Back to top | Beatles Bass for Back In The U.S.S.R.. Lyrics for acoustic guitar and electric guitar. Tablatures and chords are parodies/interpretations of the original songs. You may use it for private study, scholarship, research or language learning purposes only