» » »

A Shot Of Rhythm And Blues Tabs (ver.1)

Artists:  A B C D E F G H I J K L M N O P Q R S T U V W X Y Z # 

A Shot Of Rhythm And Blues Tabs (ver.1)

Beatles
Rating:
0/5 (0 votes)

Hard to play? Try these video lessons and learn fast.
                The Beatles- A Shot Of Rhythm and Blues
Live at the BBC

Intro
e|---------------------------------------------------------------------------|
B|---------------------------------------------------------------------------|
G|---------------------------------------------------------------------------|
D|------------4--7--5-4-----4--7--5-4-----4--7--5-4--------------------------|
A|------4-5-5-----------5-5-----------5-5--------------7-7-7-7-7-7-7---------|
E|--5-7------------------------------------------------5-5-5-5-5-5-5---------|

Verse
e|---------------------------------------------------------------------------|
B|---------------------------------------------------------------------------|
G|---------------------------------------------------------------------------|
D|-------4--7--5-4-----4--7--5-4-----4--7--5-4-----4--7--5-4-----------------|
A|---5-5-----------5-5-----------5-5-----------5-5---------------------------|
E|---------------------------------------------------------------------------|

e|---------------------------------------------------------------------------|
B|---------------------------------------------------------------------------|
G|---------------------------------------------------------------------------|
D|------------------------------------4--7--5-4-----4--7--5-4----------------|
A|-------2--5--3-2-----2--5--3-2--5-5-----------5-5--------------------------|
E|---3-3-----------3-3-------------------------------------------------------|

e|---------------------------------------------------------------------------|
B|---------------------------------------------------------------------------|
G|---------------------------------------------------------------------------|
D|---------------------------------------------------------------------------|
A|------4--7--5-4------2--5--3-2-----4--7--5-4------2--5--3-2----------------|
E|--5-5------------3-3-----------5-5------------3-3--------------------------|

Chorus
e|---------------------------------------------------------------------------|
B|---------------------------------------------------------------------------|
G|---------------------------------------------------------------------------|
D|------------------------------------4--7--5-4-----4--7--5-4----------------|
A|-------2--5--3-2-----2--5--3-2--5-5-----------5-5--------------------------|
E|---3-3-----------3-3-------------------------------------------------------|

e|---------------------------------------------------------------------------|
B|---------------------------------------------------------------------------|
G|---------------------------------------------------------------------------|
D|-----------------------------------------5--5--5----------5-5-7-5----------|
A|-------2--5--3-2-----2--5--3-2-------4-7--------------4-7------------------|
E|---3-3-----------3-3-------------5-5--------------5-5----------------------|

Verse
e|---------------------------------------------------------------------------|
B|---------------------------------------------------------------------------|
G|---------------------------------------------------------------------------|
D|-------4--7--5-4---------------------4--7--5-4------4--7--5-4--------------|
A|---5-5----------------2--5--3-2--5-5------------5-5------------------------|
E|------------------3-3------------------------------------------------------|

e|---------------------------------------------------------------------------|
B|---------------------------------------------------------------------------|
G|---------------------------------------------------------------------------|
D|----------------------------------------------------4--7--5-4--------------|
A|-------2--5--3-2------2--5--3-2------4--7--5-4--5-5------------------------|
E|---3-3------------3-3------------5-5---------------------------------------|


Chorus
e|---------------------------------------------------------------------------|
B|---------------------------------------------------------------------------|
G|---------------------------------------------------------------------------|
D|------------------------------------4--7--5-4-----4--7--5-4----------------|
A|-------2--5--3-2-----2--5--3-2--5-5-----------5-5--------------------------|
E|---3-3-----------3-3-------------------------------------------------------|

e|---------------------------------------------------------------------------|
B|---------------------------------------------------------------------------|
G|---------------------------------------------------------------------------|
D|-----------------------------------------5--5--5----------5-5-7-5----------|
A|-------2--5--3-2-----2--5--3-2-------4-7--------------4-7------------------|
E|---3-3-----------3-3-------------5-5--------------5-5----------------------|

Verse
e|---------------------------------------------------------------------------|
B|---------------------------------------------------------------------------|
G|---------------------------------------------------------------------------|
D|-------4--7--5-4---------------------4--7--5-4------4--7--5-4--------------|
A|---5-5----------------2--5--3-2--5-5------------5-5------------------------|
E|------------------3-3------------------------------------------------------|

e|---------------------------------------------------------------------------|
B|---------------------------------------------------------------------------|
G|---------------------------------------------------------------------------|
D|----------------------------------------------------4--7--5-4--------------|
A|-------2--5--3-2------2--5--3-2------4--7--5-4--5-5------------------------|
E|---3-3------------3-3------------5-5---------------------------------------|


Chorus
e|---------------------------------------------------------------------------|
B|---------------------------------------------------------------------------|
G|---------------------------------------------------------------------------|
D|------------------------------------4--7--5-4-----4--7--5-4----------------|
A|-------2--5--3-2-----2--5--3-2--5-5-----------5-5--------------------------|
E|---3-3-----------3-3-------------------------------------------------------|
 |
e|-------------------------------------------------10------------------------|
B|---------------------------------------------------------------------------|
G|-------------------5b7-5b7-5b7r5-3------------------12b14r12-10------------|
D|-----------------------------------5-3-5------------------------12-10------|
A|---------------------------------------------------------------------------|
E|---------------------------------------------------------------------------|


e|---------------------------------------------------------------------------|
B|---------------------------------------------------------------------------|
G|---------------------------------------------------------------------------|
D|-----------------------------------------5--5--5----------5-5-7-5----------|
A|-------2--5--3-2-----2--5--3-2-------4-7--------------4-7------------------|
E|---3-3-----------3-3-------------5-5--------------5-5----------------------|
 |
e|---------------------------------------------------------------------------|
B|---------------------------------------------------------------------------|
G|---------------------------------------------------------------------------|
D|---------------------------------------------12b14-12b14-12b14r12-10-------|
A|---------------------------------------------------------------------12-10-|
E|---------------------------------------------------------------------------|

Verse
e|---------------------------------------------------------------------------|
B|---------------------------------------------------------------------------|
G|---------------------------------------------------------------------------|
D|-------4--7--5-4---------------------4--7--5-4------4--7--5-4--------------|
A|---5-5----------------2--5--3-2--5-5------------5-5------------------------|
E|------------------3-3------------------------------------------------------|

e|---------------------------------------------------------------------------|
B|---------------------------------------------------------------------------|
G|---------------------------------------------------------------------------|
D|----------------------------------------------------4--7--5-4--------------|
A|-------2--5--3-2------2--5--3-2------4--7--5-4--5-5------------------------|
E|---3-3------------3-3------------5-5---------------------------------------|

e|---------------------------------------------------------------------------|
B|---------------------------------------------------------------------------|
G|---------------------------------------------------------------------------|
D|----------------------4--7--5-4---------------------4----------------------|
A|-------4--7--5-4--5-5----------------4--7--5-4--5-5--------5-4-2-----------|
E|---5-5---------------------------5-5---------------------5-----------------|

e|---------------------------------------------------------------------------|
B|---------------------------------------------7---------7---7---------------|
G|---------------------------------------------7---------7---7---------------|
D|---------------------------------------------7---------7---7---------------|
A|----------------------------------------4-5--5------4--5---5---------------|
E|--5-5-5-5-5-5-5-5-5-5-5-5-5-5-5-5-5-5-7---------5-7------------------------|
            
Hard to play? Try these video lessons and learn fast. | Correct




comments powered by Disqus
↑ Back to top | Tablatures and chords are parodies/interpretations of the original songs. You may use it for private study, scholarship, research or language learning purposes only