» » »

Beatles, A Shot Of Rhythm And Blues Bass tabs (ver.2)

Artists:  A B C D E F G H I J K L M N O P Q R S T U V W X Y Z # 

A Shot Of Rhythm And Blues Bass tabs (ver.2)

Beatles Tabs
 Rating:
4/5 (4 votes)
A Shot Of Rhythm And Blues lessons Tabs too difficult? Try these video lessons and learn fast
1
                A SHOT OF RHYTHM AND BLUES

Written by Terry Thompson

Pop Go The Beatles #11 (Aug. 27, 1963)

INTRO
  t=128                                                  00:00
G|---------------------------------|---------------------------------|
D|---------------------------------|---------------------------------|
A|---------------------------------|-----------------------------4---|
E|---------------------------------|---------------------5---7-------|

G|---------------------------------|---------------------------------|
D|---------------------------------|---------------------------------|
A|-5---5---5---5---------------4---|-5---5---5---5---------------4---|
E|-----------------5---5---5-------|-----------------5---5---5-------|

G|---------------------------------|---------------------------------|
D|---------------------------------|-----7---7---7---7---7---7---7---|
A|-5---5---5---5-------------------|---------------------------------|
E|-----------------5---5---5---5---|-5-------------------------------|

VERSE

  00:08

G|---------------------------------|---------------------------------|
D|---------------------------------|---------------------------------|
A|-5-----------5-------------------|-5-----------5-------------------|
E|-----------------5---------------|-----------------5---------------|

G|---------------------------------|---------------------------------|
D|---------------------------------|---------------------------------|
A|-5-----------5-------------------|-5-----------5-----------5-------|
E|-----------------5---------------|-----------------5---------------|

G|---------------------------------|---------------------------------|
D|-5-----------5-------------------|-5-----------5-----------7-------|
A|-----------------5-----------5---|-----------------5---------------|
E|---------------------------------|---------------------------------|

G|---------------------------------|---------------------------------|
D|---------------------------------|-----------------7---7-----------|
A|-5-----------5-------------------|-5-----------5-----------5-------|
E|-----------------5---------------|---------------------------------|

G|---------------------------------|-----------------7---------------|
D|-7-----------7-----------7-------|-5-----------5-----------5-------|
A|-----------------7---------------|---------------------------------|
E|---------------------------------|---------------------------------|

G|---------------------------------|---------------------------------|
D|-7-----------7-----------7-------|-5-------5-----------------------|
A|-----------------7---------------|---------------5-5-----5-5-------|
E|---------------------------------|---------------------------------|

CHORUS

  00:30

G|---------------------------------|---------------------------------|
D|-5-----------5-------------------|-5-----------5-----------5-------|
A|-----------------5-------5---5---|-----------------5---5-----------|
E|---------------------------------|---------------------------------|

G|---------------------------------|---------------------------------|
D|---------------------------------|---------------------------------|
A|-5-----------5-------------------|-5-----------5-----------5-------|
E|-----------------5-----------5---|-----------------5---------------|

G|---------------------------------|---------------------------------|
D|-5-----------5-------------------|-5-----------5-----------5-------|
A|-----------------5-----------5---|-----------------5---------------|
E|---------------------------------|---------------------------------|

G|---------------------------------|---------------------------------|
D|-7-----------7-----------7-------|-7-----------7-----------7-------|
A|---------------------------------|---------------------------------|
E|---------------------------------|---------------------------------|

VERSE

  00:45

G|---------------------------------|---------------------------------|
D|---------------------------------|-5-----------5---------------7---|
A|-5-----------5-----------5-------|-----------------5---------------|
E|-----------------5---------------|---------------------------------|

G|---------------------------------|---------------------------------|
D|---------------------------------|---------------------------------|
A|-5-----------5-------------------|-5-----------5-----------5-------|
E|-----------------5-----------5---|-----------------5---------------|

G|---------------------------------|---------------------------------|
D|-5-----------5-------------------|-5-----------5-----------5-------|
A|-----------------5---------------|-----------------5---------------|
E|---------------------------------|---------------------------------|

G|---------------------------------|---------------------------------|
D|-7-----------7-----------7-------|---------------------------------|
A|-----------------7---------------|-5-----------5-------------------|
E|---------------------------------|-----------------5---------------|

CHORUS

  00:59

G|---------------------------------|---------------------------------|
D|-5-----------5-------------------|-5-----------5-----------5-------|
A|-----------------5-----------5---|-----------------5---5-----------|
E|---------------------------------|---------------------------------|

G|---------------------------------|---------------------------------|
D|---------------------------------|---------------------------------|
A|-5-----------5-------------------|-5-----------5-----------5-------|
E|-----------------5-----------5---|-----------------5---------------|

G|---------------------------------|---------------------------------|
D|-5-----------5-------------------|-5-----------5-----------5-------|
A|-----------------5---5-------5---|-----------------5---------------|
E|---------------------------------|---------------------------------|

G|---------------------------------|---------------------------------|
D|-7-----------7-----------7-------|-------------7-------------------|
A|---------------------------------|---------------------------------|
E|---------------------------------|-5-----------------------5-------|

VERSE

  01:14

G|---------------------------------|---------------------------------|
D|---------------------------------|-5-----------5---------------7---|
A|-5-----------5-----------5-------|-----------------5---------------|
E|-----------------5---------------|---------------------------------|

G|---------------------------------|---------------------------------|
D|---------------------------------|---------------------------------|
A|-5-----------5-----------4-------|-5-----------5-----------5-------|
E|-----------------5---------------|-----------------5---------------|

G|---------------------------------|---------------------------------|
D|-5-----------5-------------------|-5-----------5-----------5-------|
A|-----------------5-----------5---|-----------------5---------------|
E|---------------------------------|---------------------------------|

G|---------------------------------|---------------------------------|
D|-7-----------7-----------7-------|-----------------7-------5---7---|
A|-----------------7---------------|-5---5---5---5-------5-----------|
E|---------------------------------|---------------------------------|

CHORUS

  01:29

G|---------------------------------|---------------------------------|
D|-5-----------5-------------------|-5---5---5-------5---5---5---7---|
A|-----------------5-----------5---|---------------------------------|
E|---------------------------------|---------------------------------|

G|---------------------------------|---------------------------------|
D|---------------------------------|---------------------------------|
A|-5-----------5-------------------|-5-----------5-----------5-------|
E|-----------------5-----------5---|-----------------5---------------|

G|---------------------------------|---------------------------------|
D|-5-----------5-------------------|-5-----------5-----------5-------|
A|-----------------5-----------5---|-----------------5---------------|
E|---------------------------------|---------------------------------|

G|---------------------------------|---------------------------------|
D|-7-----------7-----------7-------|-7-----------7-----------7-------|
A|---------------------------------|---------------------------------|
E|---------------------------------|-----------------------------5---|

VERSE

  01:44

G|---------------------------------|---------------------------------|
D|-----------------7---------------|-5-----------5---------------7---|
A|-5-----------5-----------5-------|-----------------5---------------|
E|---------------------------------|---------------------------------|

G|---------------------------------|---------------------------------|
D|---------------------------------|-----------------7---------------|
A|-5-----------5-------------------|-5-----------5-----------5-------|
E|-----------------5-----------5---|---------------------------------|

G|---------------------------------|---------------------------------|
D|-5-----------5-------------------|-5-----------5-------------------|
A|-----------------5-----------5---|-----------------5-----------5---|
E|---------------------------------|---------------------------------|

G|---------------------------------|---------------------------------|
D|-7-----------7-----------7-------|-----------------7-------5---7---|
A|-----------------7---------------|-5---5---5---5-------5-----------|
E|---------------------------------|---------------------------------|

OUTRO

  01:59

G|---------------------------------|---------------------------------|
D|-7-----------7---7---------------|-----------------7-------5---4---|
A|---------------------------------|-5---5---5---5-------5-----------|
E|---------------------------------|---------------------------------|

G|---------------------------------|---------------------------------|
D|-7----------7---7------------7---|-----------------7---------------|
A|---------------------------------|-5---5---5---5-------5---5---4---|
E|---------------------------------|---------------------------------|

  02:06

G|---------------------------------|---------------------------------|
D|---------------------------------|---------------------------------|
A|---------------------------------|---------------------------------|
E|-5-----------5-----------5-------|-5-----------5-----------5-------|

G|---------------------------------|---------------------------------|
D|---------------------------------|---------------------------------|
A|-5-----------5---------------4---|-5-----------5-------------------|
E|---------5-----------5---7-------|---------5-----------------------|
            
Submit corrections

comments powered by Disqus
↑ Back to top | Beatles Bass for A Shot Of Rhythm And Blues. Lyrics for acoustic guitar and electric guitar. 1 Tablatures and chords are parodies/interpretations of the original songs. You may use it for private study, scholarship, research or language learning purposes only