» » »

And I Love Her Tabs (ver.3)

Artists:  A B C D E F G H I J K L M N O P Q R S T U V W X Y Z # 

And I Love Her Tabs (ver.3)

Beatles
Rating:
0/5 (0 votes)

Hard to play? Try these video lessons and learn fast.
                I just played out the main parts like I heard em. Don’t hate

/ slide down
~~ vibrato

	Intro
 e |-------------------------------------------------------------------------|
 b |-------------------------------------------------------------------------|
 g |-------------------------------------------------------------------------|
 d |-------------------------------------------------------------------------|
 a |----2-7-6--4 ~ ----------------------------------------------------------|
 e |-------------------------------------------------------------------------| 

	Solo
 e |------------------------------------------------------------------------------|
 b |------------------------------------------------------------------------------|
 g |--0-23/-9-7/10~~---0-23-9/7~~---0-23/-97/10~~--10-7---------------------------|
 d |----------------------------------------------------8-7/5---0-0-3-5/7---------|
 a |------------------------------------------------------------------------------|
 e |------------------------------------------------------------------------------|

 e |-----------------------------------------------------7-5-3-2-2/4---------|

Play at End of song

a |----3-8-7-5---------------------------------------------------------------|
            
Hard to play? Try these video lessons and learn fast. | Correct




comments powered by Disqus
↑ Back to top | Tablatures and chords are parodies/interpretations of the original songs. You may use it for private study, scholarship, research or language learning purposes only