» » »

Beatles, All You Need Is Love Bass tabs (ver.1)

Artists:  A B C D E F G H I J K L M N O P Q R S T U V W X Y Z # 

All You Need Is Love Bass tabs (ver.1)

Beatles Tabs
Rating:
0/5 (0 votes)
All You Need Is Love lessons Tabs too difficult? Try these video lessons and learn fast
                ALL YOU NEED IS LOVE (BEATLES)

INTRO
|-----|------|-------|-------|
|-----|------|-------|-------|
|-----|------|-------|-------|
|-----|------|-------|-------|

A
   love  love      love         love        love        love      love      
|---------------|-----------|-----------|-----------|----------|----------|
|---------------|-----------|-----------|-----------|----------|----------|
|---------------|-----------|-----------|-----------|----------|----------|
|---------------|-----------|-----------|-----------|----------|----------|

   love      love
|--------|---------|
|--------|---------|
|--------|---------|
|--------|---------|


B % 1
   there's nothing...                    nothing you...      sung
   there's nothing...                    no one you...       saved
   there's nothing...                    nothing you...      shown
|----------------------|--------------|-------------------|--------------|
|*-5----------------4--|--------------|--5-------------4--|--------------|
|*---------------------|--7-----5--7--|-------------------|--7-----5--7--|
|----------------------|--------------|-------------------|--------------|

   nothing you...      how to play...              easy
   nothing you...      how to be...                easy
   nowhere you...      you're meant...             easy
|-------------------|---------------------------|-----------------|
|--7-----------5----|--4-----2------------------|-----------------|
|-------------------|------------5---3---2---3--|--5---5---3---3--|
|-------------------|---------------------------|-----------------|

|---------------------|
|--------------------*|
|--2--3--5-----5--7--*|
|---------------------|


C % 2
        all you...
|----------------------------|------------------------------------|
|*--5--5-----5---7--7-----7--|-------------------------5---7---5--|
|*---------------------------|--5--5-----5-----5---7--------------|
|----------------------------|------------------------------------|

      all you...                                            
|--------------------------|--------7---------------------|
|--5-----5-----7--7-----7--|---------------------5--7--5--|
|--------------------------|--5-----------5--7------------|
|--------------------------|------------------------------|

      all you...
|--------------------|
|--5-----9--9--9--9--|
|--------------------|
|--------------------|

       love             love is all...      TO CODA
|------9-------7--|-----------------------|
|-----------------|-----------------------|
|--7-------5------|--3-----3-----5-----5--|
|-----------------|-----------------------|

1_______________
|---------------|
|--5------------|
|--------5---7--|
|---------------|

D
   love  love        love             love   love       love
|-----------------|----------------|-----------------|----------------|
|--5---5---4---4--|----------------|--5---5---4---4--|----------------|
|-----------------|--7---7---5--7--|-----------------|--7---7---5--7--|
|-----------------|----------------|-----------------|----------------|

   love  love        love
|-----------------|-----------------------|-----------------|
|--7---7---5---5--|--4--------------------|-----------------|
|-----------------|--------5---3---2---3--|--5---5---3---3--|
|-----------------|-----------------------|-----------------|

|--------------------|
|-------------------*|
|--2--3--5---5---7--*|
|--------------------|

2.3____________  CODA
                  love is all
|--------------|--------------|
|--5-----------|--5-----------|
|--------5--7--|--------5--7--|
|--------------|--------------|

E
      you need
|---------------------------|--------------------------|
|*--5-----5-----------------|--5-----5-----------------|
|*--------------5-----5--7--|--------------5-----5--7--|
|---------------------------|--------------------------|

|--------------------------|
|--5-----5-----------------|
|--------------5-----5--7--|
|--------------------------|


|---------------------------|
|--5-----5-----------------*|
|--------------5-----5--7--*|
|---------------------------|
            
Submit corrections

comments powered by Disqus
↑ Back to top | Beatles Bass for All You Need Is Love. Lyrics for acoustic guitar and electric guitar. Tablatures and chords are parodies/interpretations of the original songs. You may use it for private study, scholarship, research or language learning purposes only