» » »

All Day And All Of The Night Tabs (ver.1)

Artists:  A B C D E F G H I J K L M N O P Q R S T U V W X Y Z # 

All Day And All Of The Night Tabs (ver.1)

Beatles
Rating:
0/5 (0 votes)

Hard to play? Try these video lessons and learn fast.
                E--------------------------------------------------------
B--------------------------------------------------------
G--------------------------3---3--3---------------------
D--3----5----5----3----3---3---3--3----5--------------------
A--3----5----5----3----3---1---1--1----5------------------
E--1----3----3----1----1---------------3-------------------
   I'm not  con-tent  to   b - e with you
            All  day  and all of the night

E--------------------------------------------------------
B--------------------------------------------------------
G--------------------------3---3--3---------------------
D--3----5----5----3----3---3---3--3----5--------------------
A--3----5----5----3----3---1---1--1----5------------------
E--1----3----3----1----1---------------3-------------------
   I'm not  con-tent  to   b - e with you
            All  day  and all of the night

E--------------------------------------------------------
B--------------------------------------------------------
G--------------------------3---3--3---------------------
D--3----5----5----3----3---3---3--3----5--------------------
A--3----5----5----3----3---1---1--1----5------------------
E--1----3----3----1----1---------------3-------------------
   I'm not  con-tent  to   b - e with you
            All  day  and all of the night

no solo, sorry
            
Hard to play? Try these video lessons and learn fast. | Correct




comments powered by Disqus
↑ Back to top | Tablatures and chords are parodies/interpretations of the original songs. You may use it for private study, scholarship, research or language learning purposes only