>
 >
A Day In Life 2

A Day In Life 2 Bass Tabs

Beatles - A Day In Life 2 chords, tabs, tablatures, lyrics

Guitar lessons | Add/correct | Request | Top 50 tabs Artists:  A B C D E F G H I J K L M N O P Q R S T U V W X Y Z 0-9

A Day In Life 2 Bass Tabs – Beatles

CD, Sheet music, Poster

Do you like A Day In Life 2? Share with your friends now
Bass Tabs
G|--------------------------------|--------------------------------|
D|--------------------------------|----------------------5-----5---|
A|----3---3---3-------3---3-------|----3---3---3-------------5---5-|
E|--------------------------------|--------------------------------|


G|--------------------------------|--------------------------------|
D|5-------5---5-0-4---4---4---4-0-|2---2---2---2-0-2---0-----------|
A|--------------------------------|----------------------0-----2---|
E|--------------------------------|--------------------------------|


G|--------------------------------|--------------------------------|
D|--------------------------------|--------------------------------|
A|3-------3-------2-------2-------|0---0---0-----------------------|
E|--------------------------------|--------------------0-------2---|


G|--------------------------------|--------------------------------|
D|----------------------------0---|2-----------0-------------------|
A|------------0---2-------2-------|--------------------0-------2---|
E|3-------3-----------------------|--------------------------------|


G|--------------------------------|--------------------------------|
D|------------2---3-------3-------|2-------2-------0-------0-------|
A|3-------------------------------|--------------------------------|
E|--------------------------------|--------------------------------|


G|--------------------------------|--------------------------------|
D|------------2---3-------3-----0-|2---2---2-----0-----------------|
A|3-------3-----------------------|----------------3---3---3---5---|
E|--------------------------------|--------------------------------|


G|--------------------------------|--------------------------------|
D|----5---5---5-0-4---4---4---4---|2---2---2---2---2---2---0---0---|
A|--------------------------------|--------------------------------|
E|3-------------------------------|--------------------------------|  


G|--------------------------------|--------------------------------|
D|--------------------------------|--------------------------------|
A|3---3---3---3---2---2---2---2---|0---0---0-----------------------|
E|--------------------------------|--------------------0-------2---|


G|--------------------------------|--------------------------------|
D|----------------------------0---|2-------2---2-------------------|
A|------------0---2-------2-------|----------------0---0---0---0---|
E|3-------3-----------------------|--------------------------------|


G|--------------------------------|--------------------------------|
D|------------2---3-------3---3---|2---2---2---2---0---0---0---0---|
A|3---3---3-----------------------|--------------------------------|
E|--------------------------------|--------------------------------|


G|--------------------------------|--------------------------------|
D|--------------------------------|--------------------------------|
A|3---3---3---3---3---3---3---3---|--------------------------------|
E|--------------------------------|3---3---3-------2---2---2-------| 


G|--------------------------------|--------------------------------|
D|--------------------------------|--------------------------------|
A|----------------5---5---5---4---|3-------3-------2-------2-------|
E|0---0---0-----------------------|--------------------------------|


G|--------------------------------|--------------------------------|
D|--------------------------------|--------------------------------|
A|0---0---0-----------------------|--------------------------------|
E|--------------------0-------2---|3-------3---3---2---2---2---2---| 


G|--------------------------------|--------------------------------|
D|--------------------------------|--------------------------------|
A|----------------5---5---5---4---|3---3---3-----------------------|
E|0-----0-0---0-------------------|------------0---1---1---1---1---|


G|--------------------------------|--------------------------------|
D|--------------------------------|--------------------------------|
A|----------------5---5---5---5---|3---3---3---3---3---3---3---3---|
E|0---0---0---0-------------------|--------------------------------|


G|--------------------------------|--------------------------------|
D|--------------------------------|--------------------------------|
A|3---3---3---3-------------------|----------------0---0---0---0---|
E|----------------2---2---2---2---|3---3---3---3-------------------|


G|--------------------------------|--------------------------------|
D|--------------------------------|--------------------------------|
A|2---2---2---2---4---4---4---4---|5---5---5---5---7---7---7---7---|
E|--------------------------------|--------------------------------|


G|--------------------------------|----------------------------7---|
D|--------------------------------|----------------------7---------|
A|7---7---7---7---7---7---7---7---|7---7---7---7---5---------------|
E|------------------------------7-|--------------------------------|


G|--------------------------------|--------------------------------|
D|--7---------7-------------------|--------------------------------|
A|--------5-------7---6---4---2---|2---2---2---2---7---6---4---2---|
E|--------------------------------|--------------------------------|


G|--------------------------------|--------------------------------|
D|--------------------------------|--------------------------------|
A|2-2-2-0-2-2-2-0-2-0-2-0-2-0-2-0-|7---6---4---2---7---6---4---2---|
E|--------------------------------|--------------------------------|


G|--------------------------------|--------------------------------|
D|----------------------------7---|------7-7-------7-7-7-7-7-7-7-7-|
A|7---6---4---2---5-------5-------|--------------------------------|
E|--------------------------------|--------------------------------|


G|--------------------------------|--------------------------------|
D|------------------------2---4---|--------------------------------|
A|7---6---4---2---2---2-2---------|7---6---4---2---2---2---2---2---|
E|--------------------------------|--------------------------------|


G|------------0---5---5---0-------|--------------------------------|
D|--------2-------------------2---|5---5---2---0---5---5---2---0---|
A|3---3---------------------------|--------------------------------|
E|--------------------------------|--------------------------------|


G|----------------7---7-----------|--------------------------------|
D|--------4---7-----------7---4---|7---7---4-------7---7-4---4-----|
A|5---5---------------------------|----------------------------7---|
E|--------------------------------|--------------------------------|  


G|--------------------------------|------------0---5---5---5---5---|
D|--------------------------------|--------2-----------------------|
A|7---7---7---7---7---7---5---5---|3---3---------------------------|
E|--------------------------------|--------------------------------|


G|--------------------------------|----------------7---7---7-------|
D|5---5---5-----------------------|------------4-7-------------7---|
A|------------7---5---5---5---0---|5---5---5-----------------------|
E|--------------------------------|--------------------------------|


G|--------------------------------|--------------------------------|
D|7---7---4-------7---7---4-------|--------------------------------|
A|------------7---------------7---|7---7---7---5---3---3---3---5---|
E|--------------------------------|--------------------------------|


G|--------------------------------|--------------------------------|
D|5---5---5---5-0-4---4---4---4-0-|2---2---2---2---0---0---0---0---|
A|--------------------------------|--------------------------------|
E|--------------------------------|--------------------------------|


G|--------------------------------|--------------------------------|
D|--------------------------------|--------------------------------|
A|3-------3-------2-------2-------|0-----------0-------------------|
E|--------------------------------|--------------------0-------2---|


G|--------------------------------|--------------------------------|
D|--------------------------------|--------------------------------|
A|--------------------------------|----------------5---5---5---4---|
E|3-------3-------2-------2-------|0---0---0-----------------------|


G|--------------------------------|--------------------------------|
D|--------------------------------|--------------------------------|
A|3---3---3-----------------------|----------------5---5---5---4---|
E|------------0---1-------1-------|0---0---0---0-------------------|


G|--------------------------------|--------------------------------|
D|--------------------------------|--------------------------------|
A|3---3---3---3---3---3---3---3---|3---3---3---3-------------------|
E|--------------------------------|----------------2---2---2---2---|  


G|--------------------------------|--------------------------------|
D|--------------------------------|--------------------------------|
A|----------------0---0---0---0---|2---2---2---2---4---4---4---4---|
E|3---3---3---3-------------------|--------------------------------|
  

G|--------------------------------|--------------------------------||
D|--------------------------------|--------------------------------||
A|5---5---5---5---7---7---7---7---|7---7---7---7---7---7---7---7---||
E|--------------------------------|--------------------------------||





Comments


Popular Beatles tabs & chords
All You Need Is Love Bass Tabs
I'm Down Bass Tabs
Everybodys Got Something To Hide Except Me And My Monkey Chords
Komm, Gib Mir Deine Hand Chords
Money Chords
Come Together 3 Tabs
Eleanor Rigby 3 Tabs
Flying Tabs
I Want You Tabs
In Spite Of All The Danger Tabs


Song lyrics



↑ Back to top | Tablatures and chords are parodies/interpretations of the original songs. You may use it for private study, scholarship, research or language learning purposes only
© 2014 AZChords.com Contact us | Privacy policy | DMCA | Add/correct tabs | Request tabs | Top 50 tabs