» » »

B. B. King, Worried Life Blues Tabs (ver.1)

Artists:  A B C D E F G H I J K L M N O P Q R S T U V W X Y Z # 

Worried Life Blues Tabs (ver.1)

B. B. King Tabs
 Rating:
4/5 (4 votes)
Worried Life Blues lessons Tabs too difficult? Try these video lessons and learn fast
                

E------------14--12------14--14--12----------------------------|----------------|
B---10--12^----------10--------------13---15--13--15--13--15^--|----------------|
G--------------------------------------------------------------|----------------|
D--------------------------------------------------------------|----------------|
A--------------------------------------------------------------|----------------|
E--------------------------------------------------------------|----------------|

E-------10--8----------------------------------------8--10^--(10)--8------|-----|
B---10---------10--7--10--7--10--7------------7--10-------------------10--|-----|
G-----------------------------------7------7------------------------------|-----|
D--------------------------------------10---------------------------------|-----|
A-------------------------------------------------------------------------|-----|
E-------------------------------------------------------------------------|-----|

E---8^------------------------------------------8h10------------------|---------|
B-------10-----------------8--8----------8--10--------10--------------|---------|
G-----------9--7-------\9--------9---\9-------------------7h9---------|---------|
D-----------------10\11----------------------------------------11--7--|---------|
A---------------------------------------------------------------------|---------|
E---------------------------------------------------------------------|---------|

E----\12--11--10--9------10--9-------------8\9--------|-------------------------|
B--------------------10---------10p7h(10)-------10/5--|-------------------------|
G-----------------------------------------------------|-------------------------|
D-----------------------------------------------------|-------------------------|
A-----------------------------------------------------|-------------------------|
E-----------------------------------------------------|-------------------------|

E------0--0--0--0--0--0---0--0--0-------------------------------------|---------|
B-----\8--8--8--8--8--8--\8--8--8-------------------------------------|---------|
G-----\9--9--9--9--9--9--\9--9--9--7h9--7--------------------------7--|---------|
D------------------------------------------9\11--7--9--7--9\10~~~-----|---------|
A---------------------------------------------------------------------|---------|
E---------------------------------------------------------------------|---------|

E------0---0---0---0---0---0----0---0---0---0---0---0---------------------------|
B---- \10--10--10--10--10--10---13--13--13--13--13--13--------------------------|
G-----\11--11--11--11--11--11--\14--14--14--14--14--14-----11h14--14--14--11----|
D-------------------------------------------------------------------------------|
A-------------------------------------------------------------------------------|
E-------------------------------------------------------------------------------|

E--------------------------------------|--9--9--8-\9--9-------8--0--|-----------|
B-------------------12--13p12----------|--8--8--7-\8----8-----7--0--|-----------|
G---14--14--11--14-------------14--11--|--9--9--8-\9-------9--8--1--|-----------|
D--------------------------------------|-------------------------2--|-----------|
A--------------------------------------|-------------------------2--|-----------|
E--------------------------------------|-------------------------0--|-----------|

E------------3------------------------------0--|--------------------------------|
B---0--3--5-----5--3------------------------2--|--------------------------------|
G---------------------2h4--1----------------2--|--------------------------------|
D-----------------------------2--0-------2--2--|--------------------------------|
A-----------------------------------3h4-----0--|--------------------------------|
E----------------------------------------------|--------------------------------|

E---5--3--3--2--2--1--1--0-------------0----------------------------------------|
B---5--5--5--3--3--1--1--2-------------0----------------------------------------|
G---6--0--0--2--2--2--2--2-------------1----------------------------------------|
D------------------------2----------2--2----------------------------------------|
A------------------------0--0--3h4-----2----------------------------------------|
E--------------------------------------0----------------------------------------|
            
Submit corrections

comments powered by Disqus
↑ Back to top | B. B. King Tabs for Worried Life Blues. Lyrics for acoustic guitar and electric guitar. Tablatures and chords are parodies/interpretations of the original songs. You may use it for private study, scholarship, research or language learning purposes only