» » »

Sanity Assassin Tabs (ver.2)

Artists:  A B C D E F G H I J K L M N O P Q R S T U V W X Y Z # 

Sanity Assassin Tabs (ver.2)

Bauhaus
Rating:
0/5 (0 votes)

Hard to play? Try these video lessons and learn fast.
                (1)

Here is my partial snips of Sanity Assassin...

Any listening to the song would reveal how these notes math up in time for
accurate renditions... Might also reveal the secret hidden parts for the
deluxe edition of this tab. 8-)



(A)|----------------------------|--------------------------------|
   |----------------------------|--------------------------------|
   |-12-12-12-12----12-12-12-12-|--------------------------------|
   |-12-12-12-12----12-12-12-12-|--------------------------------|
   |-10-10-10-10----10-10-10-10-|-12-12-12-12-12-12-12-12-12-----|
   |----------------------------|--------------------------------|


(B)|-------------------------|------------------------|
   |-------------------------|------------------------|
   |-7-7-5-7-5---7-7-5-7-5---|------------------------|
   |-------------------------|-7-7-7--7--7-7--7-7-----|
   |-------------------------|------------------------|
   |-------------------------|------------------------|


|-------------------------|------------------------|
|-------------------------|------------------------|
|-------------------------|------------------------|
|-------------------------|----------------11--11--|
|-10-10--10-10-10--9-9-9--|-10--10-10--10----------|
|-------------------------|------------------------|
            
Hard to play? Try these video lessons and learn fast. | Correct




comments powered by Disqus
↑ Back to top | Tablatures and chords are parodies/interpretations of the original songs. You may use it for private study, scholarship, research or language learning purposes only