» » »

Endless Summer Of The Damned Bass tabs (ver.1)

Artists:  A B C D E F G H I J K L M N O P Q R S T U V W X Y Z # 

Endless Summer Of The Damned Bass tabs (ver.1)

Bauhaus
Rating:
0/5 (0 votes)

Hard to play? Try these video lessons and learn fast.
                

Tuning: Standard

Intro:
G|--------------------------|
D|---7---7-------5-----4----|
A|---------5---3---3-2---2--|
E|-5---5--------------------| x 4

Vocals start:
G|--------------------------|
D|---7---7-------5-----4----|
A|---------5---3---3-2---2--|
E|-5---5--------------------| x 4

Played with heavy fuzz:
G|--------------------------|
D|---7---7-------5-----4----|
A|---------5---3---3-2---2--|
E|-5---5--------------------| x 4

Break:
G|-------------------------------------|
D|-------------------------------------|
A|--6(let it ring)-6--3(let it ring)-3-|
E|-------------------------------------| x 2

Main riff again:
G|--------------------------|
D|---7---7-------5-----4----|
A|---------5---3---3-2---2--|
E|-5---5--------------------| x 4

Vocals start again:
G|--------------------------|
D|---7---7-------5-----4----|
A|---------5---3---3-2---2--|
E|-5---5--------------------| x 4

Played with heavy fuzz:
G|--------------------------|
D|---7---7-------5-----4----|
A|---------5---3---3-2---2--|
E|-5---5--------------------| x 7

Note slide at end:
G|------------------------------|
D|---7---7-------5-----4--------|
A|---------5---3---3-2---2/14\2-|
E|-5---5------------------------| x 1

G|--------------------------|
D|---7---7-------5-----4----|
A|---------5---3---3-2---2--|
E|-5---5--------------------| x 3

Note slide at end:
G|------------------------------|
D|---7---7-------5-----4--------|
A|---------5---3---3-2---2/14\2-|
E|-5---5------------------------| x 1

G|--------------------------|
D|---7---7-------5-----4----|
A|---------5---3---3-2---2--|
E|-5---5--------------------| x 8

Bass and guitar drop out for a bit... drums and vocals only.

Bass comes back in with a fast slide:
G|---------|
D|---------|
A|-5/17\5--|
E|---------| x 1

Main riff continues until end of song:
G|--------------------------|
D|---7---7-------5-----4----|
A|---------5---3---3-2---2--|
E|-5---5--------------------| x 11

End on a ringing D:
G|-------------------------|
D|---7---7-----------------|
A|---------5(let it ring)--|
E|-5---5-------------------| x 1

| /  slide up
| \  slide down
| h  hammer-on
| p  pull-off
| ~  vibrato
| +  harmonic
| x  Mute note
            
Hard to play? Try these video lessons and learn fast. | Correct




comments powered by Disqus
↑ Back to top | Tablatures and chords are parodies/interpretations of the original songs. You may use it for private study, scholarship, research or language learning purposes only