» » »

Bauhaus, Dancing Bass tabs (ver.1)

Artists:  A B C D E F G H I J K L M N O P Q R S T U V W X Y Z # 

Dancing Bass tabs (ver.1)

Bauhaus Tabs
 Rating:
4/5 (4 votes)
Dancing lessons Tabs too difficult? Try these video lessons and learn fast
                "Dancing" by Bauhaus (from the album "Mask")



Verse:
G |--------------------------|
D |-------------44-----------|
A |-7--------777---5-------7-|x 2
E |-----0------------557-----|

Octave Part:
G |---9--9--9--9--11--11--12--12---9--9--9--9--7--7--6--6--|
D |--------------------------------------------------------|
A |-7--7--7--7--9--9---10---10---7--7--7--7--5--5--4--4----|x 2
E |--------------------------------------------------------|

x8 Verse
x1 Octave Part
x8 Verse

G |---------------------------9---------------------------------------|
D |-------------44---5/7-5/7-------------44---------------------44----|
A |-7--------777---5-----------------777---5--------7-------777----5--|x1
E |-----0------------------------0------------557-------0-------------|

G |-------------------------------------|
D |-9p7-7-9p7-7-9p7-7-9p7-7-9p7-7-------|
A |---------------------------------7---|
E |-------------------------------------|

x6 Verse

G |---9--9--11--12-|
D |----------------|
A |-7--7--9---10---|x 3
E |----------------|

G |---9--9--7--6---|
D |----------------|
A |-7--7--5--4-----|x 1
E |----------------|

x8 Verse

G |------------------|
D |------------------|
A |-7----------------|
E |-----0------------|
            
Submit corrections

comments powered by Disqus
↑ Back to top | Bauhaus Bass for Dancing. Lyrics for acoustic guitar and electric guitar. Tablatures and chords are parodies/interpretations of the original songs. You may use it for private study, scholarship, research or language learning purposes only