» » »

Immigration Immigrant Dub Bass tabs (ver.1)

Artists:  A B C D E F G H I J K L M N O P Q R S T U V W X Y Z # 

Immigration Immigrant Dub Bass tabs (ver.1)

Basement 5
Rating:
0/5 (0 votes)

Tabs too difficult? Try these video lessons and learn fast.
                Basement 5
Immigration (Immigrant Dub)
Bassist: Leo "E-Zee Kill" Williams

1° riff

E ---0-5-8----0-5-5-8----0-5-5-8-8-8-8---5-8-7----------------|
A ------------------------------------------------------------|
D ------------------------------------------------------------|
G ------------------------------------------------------------|

2° riff

E ----0-5-8----0-5-5-8----0-5-5-8-8-8-8--5-8-8-7-5------------|
A ------------------------------------------------------------|
D ------------------------------------------------------------|
G ------------------------------------------------------------|

3° riff

E ----0-5-8----0-5-5-8----0-5-5-8-5----8-7-5------------------|
A -------------------------------------------8-7-5------------|
D ------------------------------------------------------------|
G ------------------------------------------------------------|

4° riff

E ---0-5-8-8-8----0-0-5-8---0-5-5-8-8-8-8----5-8-8-7-5--------|
A ------------------------------------------------------------|
D ------------------------------------------------------------|
G ------------------------------------------------------------|

5° riff

E ---0-5-8-8-8----0-0-5-8---0-5-5-8-8-8-8-5-------------------|
A ------------------------------------------8-8-7-5-----------|
D ------------------------------------------------------------|
G ------------------------------------------------------------|

6° riff

E ---0-5-8-8-8----0-0-5-8---0-5-5-8-5----8-7-5----------------|
A ---------------------------------------------8-7-5----------|
D ------------------------------------------------------------|
G ------------------------------------------------------------|

BEAUTIFUL DUB BASSLINE.
STAY COOL/HANG LOOSE
            
Tabs too difficult? Try these video lessons and learn fast.




comments powered by Disqus
↑ Back to top | Tablatures and chords are parodies/interpretations of the original songs. You may use it for private study, scholarship, research or language learning purposes only