>
 >
Blackpowder Orchard

Blackpowder Orchard Guitar Tabs

Baroness - Blackpowder Orchard chords, tabs, tablatures, lyrics

Guitar lessons | Add/correct | Request | Top 50 tabs Artists:  A B C D E F G H I J K L M N O P Q R S T U V W X Y Z 0-9

Blackpowder Orchard Guitar Tabs – Baroness

CD, Sheet music, Poster

Do you like Blackpowder Orchard? Share with your friends now
Tabs

Tunings: Down 1 step (elec.), Drop C (acous.)


G1 (Acous.)
 |
d|---------------------------------|-----------------------------------|
A|-----------------3-----------3---|-----------------3--------------|
F|-----------2h4-0-----2-------2---|-----------2h4-0-----2----------|
C|-0---4h5-0-------------------4---|-0---4h5-0----------------------|
G|---------------------------------|-----------------------------------|
C|-------------------------0-------|-----------------------------------|


d|---------------------------------|---------------------------------|
A|-----------------3-----------3---|---------------------------------|
F|-----------2h4-0-----2-------2---|-----------2h4-0-4p2-----2-------|
C|-0---4h5-0-------------------4---|-0---4h5-0-----------4h5---0h2h4-|
G|---------------------------------|---------------------------------|
C|-------------------------0-------|---------------------------------|

Second acoustic doubles after first four bars


G2
 |
d|---------------------------------|---------------------------------|
A|-7-----------------------8p7---7-|-10---------------------10p8-7h8-|
F|-----------------------------9---|---------------------------------|
C|---------------------------------|---------------------------------|
G|---------------------------------|---------------------------------|
D|---------------------------------|---------------------------------|
 |
G3
 |
d|---------------------------------|---------------------------------|
A|---------------------------------|---------------------------------|
F|---------------------------------|---------------------------------|
C|---------------------------------|---------------------------------|
G|-5-----------------------7p5---7-|-9-----------------------9p7-5h7-|
D|-----------------------------9---|---------------------------------|
 |
G4
 |
d|-14------------------15h14----14-|-17------------------17p15-14h15-|
A|---------------------------17----|---------------------------------|
F|---------------------------------|---------------------------------|
C|---------------------------------|---------------------------------|
G|---------------------------------|---------------------------------|
D|---------------------------------|---------------------------------|


G2
 |
d|---------------------------------|---------------------------------|
A|-7-----------------8-7---7-------|---------------------------------|
F|-----------------------9---9-7---|-7-------------------------------|
C|-------------------------------9-|---------------------------------|
G|---------------------------------|---------------------------------|
D|---------------------------------|---------------------------------|
 |
G3
 |
d|---------------------------------|---------------------------------|
A|---------------------------------|---------------------------------|
F|---------------------------------|---------------------------------|
C|---------------------------------|---------------------------------|
G|-5-----------------7-5-----------|---------------------------------|
D|-----------------------9-7-9-7-9-|-7-------------------------------|
 |
G4
 |
d|-14---------15-14----14----------|---------------------------------|
A|------------------17----17-15-17-|-15------------------------------|
F|---------------------------------|---------------------------------|
C|---------------------------------|---------------------------------|
G|---------------------------------|---------------------------------|
D|---------------------------------|---------------------------------|



| /  slide up
| \  slide down
| h  hammer-on
| p  pull-off
| ~  vibrato
| +  harmonic
| x  Mute note





Comments


Popular Baroness tabs & chords
Swollen And Halo Bass Tabs
Sea Lungs Chords
Twinkler Chords
A Horse Called Golgotha 1 Tabs
Bullheads Lament 1 Tabs
Grad Tabs
Grad 2 Tabs
O'er Hell And Hide Tabs
Stretchmarker Intro Tabs
Wanderlust Tabs


Song lyrics



↑ Back to top | Tablatures and chords are parodies/interpretations of the original songs. You may use it for private study, scholarship, research or language learning purposes only
© 2014 AZChords.com Contact us | Privacy policy | DMCA | Add/correct tabs | Request tabs | Top 50 tabs