» » »

Barney, I Love You Tabs (ver.3)

Artists:  A B C D E F G H I J K L M N O P Q R S T U V W X Y Z # 

I Love You Tabs (ver.3)

Barney Tabs
Rating:
0/5 (0 votes)
I Love You lessons Tabs too difficult? Try these video lessons and learn fast
                tuning: standard

My band was asked to play this at a gig. This is what I came up so if any one 
wants to rock out to barney, Here you go.

intro
|-----------------|   
|-----------------|
|-----------------|
|-7-7-7-7-7-7-7-7-|x2
|-7-7-7-7-7-7-7-7-|
|-5-5-5-5-5-5-5-5-|

|-----------------|   
|-----------------|
|-----------------|
|-7-7-7-7-7-7-7-7-|x2
|-7-7-7-7-7-7-7-7-|
|-5-5-5-5-5-5-5-5-|
  I love you
  You love me
|-------------------------|
|-------------------------|
|-11-11-11-11-11-11-11-11-|
|-11-11-11-11-11-11-11-11-|
|-9--9--9--9--9--9--9--9--|
|-------------------------|
 we're one happy
|-----------------|
|-----------------|
|-4-4-4-4-4-4-4-4-|
|-4-4-4-4-4-4-4-4-|
|-2-2-2-2-2-2-2-2-|
|-----------------|
 fam-i-ly      with a 
|-----------------|   
|-----------------|
|-----------------|
|-7-7-7-7-7-7-7-7-|
|-7-7-7-7-7-7-7-7-|
|-5-5-5-5-5-5-5-5-|
 great big hug and a kiss
|-----------------|
|-----------------|
|-------7-9-------|
|-7-7-7-7-9-------|
|-7-7-7-5-7-------|
|-5-5-5-----------|
|-----------------|   
|-----------------|
|-7---4---4---5---|
|-7---4---4---5---|
|-9---2---2---3---|
|-----------------|
won't you say you
|-----------------|   
|-----------------|
|-6---4-----------|
|-6---4---7-------|
|-4---2---7-------|
|---------5-------|
 love me  too


hope it works for you
and remember I love you too.
            

comments powered by Disqus
↑ Back to top | Barney Tabs for I Love You. Lyrics for acoustic guitar and electric guitar. Tablatures and chords are parodies/interpretations of the original songs. You may use it for private study, scholarship, research or language learning purposes only