» » »

Barlow Girl, No One Like You Bass tabs (ver.1)

Artists:  A B C D E F G H I J K L M N O P Q R S T U V W X Y Z # 

No One Like You Bass tabs (ver.1)

Barlow Girl Tabs
 Rating:
4.3/5 (6 votes)
No One Like You lessons Tabs too difficult? Try these video lessons and learn fast
                Barlow Girl
Another Journal Entry
No one like you
3:13

99% correct

  Intro
G|------------------------------|
D|------------------------------|
A|------------------------------|
E|--0-0----9-9----7-7----5-5----| x 2

  Chorus
G|-----------------------------------------------------------|
D|-----------------------------------------------------------|
A|-----------------------------------------------------------|
E|--0--0-0--0-0-0-7--7-7--7-7-7-9--9-9--9-9-9-5--5-5--5-5-5--|

  Verse
G|------------------------------------------------------|
D|------------------------------------------------------|
A|------------------------------------------------------|
E|--0--0-0--0-0--9--9-9--9-9--7--7-7--7-7--5--5-5--5-5--| x 4
  (2nd time variation at the end)

  Pre-chorus
G|--------------|
D|--------------|
A|--------------|
E|--7~~~~5~~~~--|

  Chorus x 4

  Verse x 4

  Chorus x 4

  Bridge
G|---------------------|
D|---------------------|
A|---------------------|
E|--7~~/-9-\5~~/-12-\--| x 4


G|-----------------------------------|
D|-----------------------------------|
A|-----------------------------------|
E|--7-7-7-7-7-7-7-7-5-5-5-5-5-5-5-5--|

G|-------------------------------------------------------------------------|
D|-------------------------------------------------------------------------|
A|----------------------------------12-12-12-12-12-12-12-12-12-12-12-12-12-|
E|--7-7-7-7-7-7-7-7-5-5-5-5-5-5-5-5----------------------------------------|

  Chorus x 2

  Outro
G|----------------------------------------------------|
D|----------------------------------------------------|
A|----------------------------------------------------|
E|--0--x-x-0--0----7--7-7~~--9--x-x-9--9----5--5-5~~--| x 2

G|--------------------------------------------------|
D|--------------------------------------------------|
A|--------------------------------------------------|
E|--0--0--0--0--7--7--7--7--9--9--9--9--5--5--5--5--|

G|-----------------------------------------------------|
D|-----------------------------------------------------|
A|-----------------------------------------------------|
E|--0--0--0--0--7--7--7--7--9--9--9--9--x--x-x--x-x-x--|

  Chorus x 2

  End with
G|-----|
D|-----|
A|-----|
E|--0--| let ring (or harmonic on 12th)
            
Submit corrections

comments powered by Disqus
↑ Back to top | Barlow Girl Bass for No One Like You. Lyrics for acoustic guitar and electric guitar. Tablatures and chords are parodies/interpretations of the original songs. You may use it for private study, scholarship, research or language learning purposes only