>
 >
No One Like You

No One Like You Guitar Tabs

Barlow Girl - No One Like You chords, tabs, tablatures, lyrics

Guitar lessons | Add/correct | Request | Top 50 tabs Artists:  A B C D E F G H I J K L M N O P Q R S T U V W X Y Z 0-9

No One Like You Guitar Tabs – Barlow Girl

CD, Sheet music, Poster

Do you like No One Like You? Share with your friends now
Bass TabsChordsTabsUkulele
Barlow Girl - No One Like You

Standard Tuning

Key:
Slide     \
Palm Mute *
Dead Note x

Verse 1 (0:05)
e|-----------------------------|
B|-----------------------------|
G|--------66\---44\---22\------|
D|--22\---66\---44\---22\--x2--|
A|--22\---44\---22\---00\------|
E|--00\------------------------|

Then (0:15)
e|-----------------------|
B|-----------------------|
G|-------4444-6666-2222--|
D|--2222-4444-6666-2222--|
A|--2222-2222-4444-0000--|
E|--0000-----------------|

Then (0:20)
e|--------------------------------------|
B|--------------------------------------|
G|----------66-xxxx-44-xxxx-22-xxxx-----|
D|--22-xxxx-66-xxxx-44-xxxx-22-xxxx-x4--|
A|--22-xxxx-44-xxxx-22-xxxx-00-xxxx-----|
E|--00-xxxx-----------------------------|

Pre-chorus (0:40)
e|--------|
B|--------|
G|--4--6--|
D|--4--6--|
A|--2--4--|
E|--------|

Chorus (0:45)
e|--------------------------|
B|--------------------------|
G|-------4444-6666-2222-----|
D|--2222-4444-6666-2222-x4--|
A|--2222-2222-4444-0000-----|
E|--0000--------------------|

Verse 2 (1:05)
e|---------------------|
B|---------------------|
G|------6---4---2------|
D|--2---6---4---2--x2--|
A|--2---4---2---0------|
E|--0------------------|

Then (1:16)
e|-----------------------------------|
B|-----------------------------------|
G|----------66-xxxx-44-xxxx-22-xxxx--|
D|--22-xxxx-66-xxxx-44-xxxx-22-xxxx--|
A|--22-xxxx-44-xxxx-22-xxxx-00-xxxx--|
E|--00-xxxx--------------------------|

Repeat Chorus

Bridge (1:41)
e|--------------------------|
B|--------------------------|
G|--4---6-2-----4---6-2-----|
D|--4---6-2---2-4---6-2-x2--|
A|--2---4-0---2-2---4-0-----|
E|------------0-------------|


Then (2:01)
e|----------------------------------------|
B|--------------------Slowly Build Up-----|
G|--4444-2222-4444-2222-2222-2222-2222-2--|
D|--4444-2222-4444-2222-2222-2222-2222-2--|
A|--2222-0000-2222-0000-0000-0000-0000-0--|
E|----------------------------------------|
    **** **** ***

Repeat Chorus

Then (2:26)
e|-----------------------------|
B|-----------------------------|
G|--------44-4--6xx-6-22-2-----|
D|--2xx-2-44-4--6xx-6-22-2-x2--|
A|--2xx-2-22-2--4xx-4-00-0-----|
E|--0xx-0----------------------|

Outro (2:36)
e|--------------------------------------|
B|--------------------------------------|
G|----------4-4-4-4-6-6-6-6-2-2-2-2-----|
D|--2-2-2-2-4-4-4-4-6-6-6-6-2-2-2-2-x2--|
A|--2-2-2-2-2-2-2-2-4-4-4-4-0-0-0-0-----|
E|--0-0-0-0-----------------------------|

Then (2:46)
e|----------------------------------------|
B|----------------------------------------|
G|-------4444-6666-2222-------------------|
D|--2222-4444-6666-2222-x2--Finish-On--2--|
A|--2222-2222-4444-0000----------------2--|
E|--0000-------------------------------0--|





Comments


Popular Barlow Girl tabs & chords
Enough Chords
I Need You To Love Me 3 Chords
Never Alone 4 Chords
On My Own Chords
Surrender Chords
Tears Fall Chords
Never Alone 3 Tabs
Clothes Ukulele
I Need You To Love Me Ukulele
Never Alone Ukulele


Song lyrics



↑ Back to top | Tablatures and chords are parodies/interpretations of the original songs. You may use it for private study, scholarship, research or language learning purposes only
© 2014 AZChords.com Contact us | Privacy policy | DMCA | Add/correct tabs | Request tabs | Top 50 tabs