» » »

Black Eye Bass tabs (ver.1)

Artists:  A B C D E F G H I J K L M N O P Q R S T U V W X Y Z # 

Black Eye Bass tabs (ver.1)

Bargain Music
Rating:
0/5 (0 votes)

Tabs too difficult? Try these video lessons and learn fast.
                			     Black Eye – Bargain Music


Tuning: E A D G

G|----------------------------------------------------------------------4----|
D|-2-------2-2-4---------------------------------------0---2-------2-2-----2-|
A|-----2-----------2---0---222---4---2---0-------000-----------2-------------|
E|-------------------------------------------0-------------------------------|

G|------------------------------------------------------------------4--------|
D|-----2-2-4---------------------------------------0---2-------2-2-----2-----|
A|-2-----------2---0---222---4---2---0-------000-----------2-----------------|
E|---------------------------------------0-----------------------------------|
This is basically the whole song.  There are slight changes.
            
Tabs too difficult? Try these video lessons and learn fast.


comments powered by Disqus
↑ Back to top | Tablatures and chords are parodies/interpretations of the original songs. You may use it for private study, scholarship, research or language learning purposes only