>
 >
Who Needs Sleep 2

Who Needs Sleep 2 Guitar Tabs

Barenaked Ladies - Who Needs Sleep 2 chords, tabs, tablatures, lyrics

Guitar lessons | Add/correct | Request | Top 50 tabs Artists:  A B C D E F G H I J K L M N O P Q R S T U V W X Y Z 0-9

Who Needs Sleep 2 Guitar Tabs – Barenaked Ladies

CD, Sheet music, Poster

Do you like Who Needs Sleep 2? Share with your friends now
ChordsChords v2TabsTabs v2Ukulele
-------------------------------------------------------------------------------
                             Who Needs Sleep - Barenaked Ladies (Bathroom Sessions)
-------------------------------------------------------------------------------
Modified Tab by: dmb_spook


Original Tab by: skierinanutshel


Please listen to the song for the correct strum patterns.

Tuning: Standard

Intro:
                                                
e|-----3-------3-----------------------------3-------3-------------------------------|
B|-----3-------3-----------------------------3-------3-------------------------------|
G|-----0-------0--------0---0h2p0------------0-------0--------0---0h2p0-0------------|
D|-----0-------2-/4---4----------0h2p0-0-----0-------2-/4---4------------------------|
A|-2-2-2-2-2h3-3-/5-5--------------------2-2-2-2-2h3-3-/5-5--------------------------|
E|------------------------0-------------------------------------0--------------------|

First Verse:


  *u        d                     d        d                  
e|-3--------3---------------------3--------3----------------|
B|-3--------3---------------------3--------3----------------|
G|-0--------0----0-------0h2p0-0--0--------0----0-----------|
D|-0--0-0h2-2------0---0----------0--0-0-0-2------0---0h2p0-|
A|-2--2-2h3-3---------------------2--2-2h3-3----------------|
E|-3-----------2-----3------------3-----------2-----3-------|



    d        d                        d  d   d            d
e|--3--------3------------------------3--3---3------------3-|
B|--3--------3------------------------3--3---3------------3-|
G|--0--------0--------0---------------0--0---0--------0---0-|
D|--0--0-0-0-2-/4---4-----0-0h2-------0--0h2-2-/4---4-----0-|
A|--2--2-2h3-3-/5-5-------------------2--0h3-3-/5-5-------2-|
E|0-0-------------------0-------0-0-0-0-----------------0-3-|

Intro: Repeat once

Second Verse: repeat one time

Pre-chorus:

e|---------------------------------3-----0--3------------------------------3---|
B|-------0h1p0-0------0h1p0-0------3-----1--3-------0h1p0-0------0h1p0-0---3---|
G|---------------------------------0-----0--0------------------------------0---|
D|---------------------------------0-----2--0------------------------------0---|
A|--3-3----------------------------2-----3--2---3-3------------------------2---|
E|---------------1-1----------3-3--3-----x--3----------------1-1-----------3---|


The pre-chorus can also be played as

                   d      d   d d
e|-----------------0------3---3-3---|
B|-----0h1p0-0-----1------3---3-3---|
G|-----------------0------0---0-0---|
D|-----------------0------0---2-0---|
A|-3-3-------------0------2---3-2---|
E|-------------1-1-1--3-3-3-----3---|

Chorus:

e|--3--3----------------------------|                      
B|--3--3----------------------------|  these two chords  
G|--0--2-(can be a 0 or a 2,--------|  played 3 times, 
D|--2--3--you can h or p for both)--|  listen for the 
A|--3-------------------------------|  strum pattern.
E|----------------------------------|


              e|---3--|
    end on    B|---3--|
              G|---0--|
              D|---0--|
              A|---2--|
              E|---3--|

Intro: repeat one time

Third Verse: repeat one time

Pre-Chorus: repeat one time

Bridge:

let the notes ring throughout
                             d
e|----------------------------3------------------------------|
B|--------------3-------------3---------------3--------------|
G|------0-----2---0-----0-----0-------0-----2---0-----0------|
D|----2---0-3---------2---0---0-----2---0-3---------2---0----|
A|--3---------------3---------2---3---------------3----------|
E|--------------------------3-3----------------------------3-|


e|----------------------------------3----------------------------3--|
B|---------------------3------------3---------------3------------3--|
G|------------0------2---0-----0----0-------0-----2---0-----0----0--|
D|----------2---0-3----------2---0--0-----2---0-3---------2---0--0--|
A|----0-2-3----------------3--------2---3---------------3--------2--|
E|--3-------------------------------3----------------------------3--|

Pre-Chorus: repeat one time

"Holla Holla Holla!"

Chorus: Repeat one time


           e|--3--|
           B|--3--|
  End on:  G|--0--|
           D|--2--|
           A|--3--|
           E|-----|      

  
| *  arpeggio
| u  upstroke
| d  downstroke
| /  slide up
| \  slide down
| h  hammer-on
| p  pull-off
| ~  vibrato
| +  harmonic
| x  Mute note
===============================================================================





Comments


Popular Barenaked Ladies tabs & chords
Too Little Too Late Bass Tabs
Conventioneers 2 Chords
Light Up My Room Chords
Never Is Enough Chords
One Week Drum Tabs
Hello City Tabs
Jane Tabs
Snowman Tabs
Auld Lang Syne Ukulele
Straw Hat And Old Dirty Hank Ukulele


Song lyrics



↑ Back to top | Tablatures and chords are parodies/interpretations of the original songs. You may use it for private study, scholarship, research or language learning purposes only
© 2014 AZChords.com Contact us | Privacy policy | DMCA | Add/correct tabs | Request tabs | Top 50 tabs