» » »

Barenaked Ladies, Some Fantastic Tabs (ver.2)

Artists:  A B C D E F G H I J K L M N O P Q R S T U V W X Y Z # 

Some Fantastic Tabs (ver.2)

Barenaked Ladies Tabs
 Rating:
4/5 (4 votes)
Some Fantastic lessons Tabs too difficult? Try these video lessons and learn fast
1
                                     SOME FANTASTIC - Barenaked Ladies

Standard Tuning, Capo on 3rd fret

Intro:
|-----------------|-----------------|-----------------|-----------------|
|-0-----1---------|---3---0h1-------|-0-----1---------|---3---0h1-------|
|-0-----0---------|---0---0---------|-0-----0---------|---0---0---------|
|-----------2p0---|h4---------2p0---|-----------2p0---|h4---------2p0---|
|-------0-------2-|-------0---------|-------0-------2-|-------0---------|
|-3---------------|-----------------|-3---------------|-----------------|

|-----------------|-----------------|-----------------|-----------------|
|-0-----1---------|---3---0h1-------|-0-----1---------|---3---0h1-------|
|-0-----0---------|---0---0---------|-0-----0---------|---0---0---------|
|-----------2p0---|h4---------2p0---|-----------2p0---|h4---------2p0---|
|-------0-------2-|-------0---------|-------0-------2-|-------0---------|
|-3---------------|-----------------|-3---------------|-----------------|

Verse:
|-----------------|-----------------|-----------------|-----------------|
|-0-----1---------|---3---0h1-------|-0-----1---------|---1-------3-----|
|-0-----0---------|---0---0---------|-0-----0---------|---0-------0-----|
|-----------2p0---|h4---------2p0---|-----------2p0---|h2------h4-------|
|-------0-------2-|-------0---------|-------0-------3-|-------5---------|
|-3---------------|-----------------|-3---------------|-----------------|

|-----------------|-----------------|-----------------|-----------------|
|-0-----1---------|---3---0h1-------|-0-----1---------|---1-------3-----|
|-0-----0---------|---0---0---------|-0-----0---------|---0-------0-----|
|-----------2p0---|h4---------2p0---|-----------2p0---|h2------h4-------|
|-------0-------2-|-------0---------|-------0-------3-|-------5---------|
|-3---------------|-----------------|-3---------------|-----------------|

Prechorus:
|-----------------|-----------------|-----------------|-----------------|
|---8---8---8/7-7-|---7-------7-----|-0h1---0---1---1-|-------1---------|
|---0---0---0---0-|---0-------0-----|-0-----0---0---0-|-------0-----0---|
|-----------------|-------0---------|-----------------|---0h2-------0---|
|-7-----6---6/5-5-|-----5---------0-|-------0-------0-|---------0h2-----|
|-----------------|-----------------|-----------------|-----------------|

|-----------------|-----------------|-----------------|-----------------|
|---8---8---8/7-7-|---7-------7-----|-0h1---0---1---1-|-------1---------|
|---0---0---0---0-|---0-------0-----|-0-----0---0---0-|-------0-----0---|
|-----------------|-------0---------|-----------------|---0h2-------0---|
|-7-----6---6/5-5-|-----5---------0-|-------0-------0-|---------0h2-----|
|-----------------|-----------------|-----------------|-----------------|

Chorus:
G         G/F#        Cadd9  A7
There's a lot I will never do
G       G/F#      Cadd9     A7
Some fantastic, I know it's true
    G       G/F#       Cadd9   A7      Cadd9
But none as much as my want to be with you

Bridge:

G   G/F#  Em7    A7
Bye-bye  self-respect
G          G/F#            Em7       A7
  I haven't had much of it since you left
G  G/F#  Em7         A7    Cadd9
I missed out on the best of you
            
Submit corrections

comments powered by Disqus
↑ Back to top | Barenaked Ladies Tabs for Some Fantastic. Lyrics for acoustic guitar and electric guitar. 1 Tablatures and chords are parodies/interpretations of the original songs. You may use it for private study, scholarship, research or language learning purposes only