» » »

Barenaked Ladies, One Week Tabs (ver.2)

Artists:  A B C D E F G H I J K L M N O P Q R S T U V W X Y Z # 

One Week Tabs (ver.2)

Barenaked Ladies Tabs
 Rating:
4/5 (4 votes)
One Week lessons Tabs too difficult? Try these video lessons and learn fast
                -------------------------------------------------------------------------------
                             SONG NAME - Band Name
-------------------------------------------------------------------------------

Tuning: Standard (capo on 2nd fret)

"It's been..." (Intro)

e|--5-------5--5--------------------------------------------------------------|
B|--5-------5--5----listen-for------------------------------------------------|
G|--2-------2--2--------------------------------------------------------------|
D|--2-------4--5----the-rhythm------------------------------------------------|
A|--4-------5--4--------------------------------------------------------------|
E|--5-------------------------------------------------------------------------|

"Hold it now..." (Verse)

e|----5-----5-----------------------------|----If-you-have-two---9------------|
B|----5-----5----Alternate-between--------|----------------------10----to-the-|
G|----2-----2-----------------------------|----guitars-play------9------------|
D|----2-----4----these-with-a-bluegrass---|----------------------11-----beat--|
A|----4---5-5-----------------------------|----this-on-one--------------------|
E|--5-5-------------feel------------------|-----------------------------------|

"How can I help it..." (Chorus)

e|-----5-----2-----2-----2h5--------------------------------------------------|
B|-----5-----5-----5-----5-5--------------------------------------------------|
G|-----2-----2-----2-----2-2--------------------------------------------------|
D|-----2-----2-----2-----2h4--------------------------------------------------|
A|-----4-----2---4-4---5-5-5--------------------------------------------------|
E|---5-5---4-4----------------------------------------------------------------|


Sequence:

Intro
Verse
Chorus
Intro
Verse (for bridge - for live performances they sing "chickadee china the chinese 
over...just play the G shaped chord)
Verse
Chorus
Intro
Outro is the Verse played over again
End on:

e|-5|
B|-5-|
G|-2-|
D|-2-|
A|-4-|
E|-5-|


| /  slide up
| \  slide down
| h  hammer-on
| p  pull-off
| ~  vibrato
| +  harmonic
| x  Mute note
===============================================================================
            
Submit corrections

comments powered by Disqus
↑ Back to top | Barenaked Ladies Tabs for One Week. Lyrics for acoustic guitar and electric guitar. Tablatures and chords are parodies/interpretations of the original songs. You may use it for private study, scholarship, research or language learning purposes only