» » »

Roll If Ya Fall Tabs (ver.1)

Artists:  A B C D E F G H I J K L M N O P Q R S T U V W X Y Z # 

Roll If Ya Fall Tabs (ver.1)

Barefoot Truth
Rating:
5/5 (9 votes)

Hard to play? Try these video lessons and learn fast.
                Roll if Ya Fall- Barefoot Truth
Tuning- Standard
EADGBE

Met Will and Garret last night they played a show in my town it was so epic.

Intro
e--7---7h9p9----------7----6---9---12-12-11-11h12-----|
b--9----------9-7-----7----7--11----------------------|
g--9---------------9--7h8--8--11----------------------|
d--9------------------7h9--8--11----------------------|
a--7------------------7h9--6---9----------------------|
e--7------------------7----6---9----------------------|

e--7---7h9p7-----11--7--7----6-----9-------|
b--9----------9---------7----7-----11------|
g--9--------------------7h8--8-----11------|
d--9--------------------7h9--8-----11------|
a--7--------------------7h9--6-----9-------|
e--7--------------------7----6-----9-------|

Verse
e--7------------------------------------|
b--7------------------------------------|
g--8-----------------------9-9---9------|
d--9--------------9h11-9-9-----9--------|
a--9--------9-11------------------------|
e--7--9h11------------------------------|

Chorus
e--9----7-|
b--11---9-|
g--11---9-|
d--11---9-|
a--9----7-|
e--9----7-|
            
Hard to play? Try these video lessons and learn fast. | Correct




comments powered by Disqus
↑ Back to top | Tablatures and chords are parodies/interpretations of the original songs. You may use it for private study, scholarship, research or language learning purposes only