>
 >
Swallow The Razor

Swallow The Razor Guitar Tabs

Bang Camaro - Swallow The Razor chords, tabs, tablatures, lyrics

Guitar lessons | Add/correct | Request | Top 50 tabs Artists:  A B C D E F G H I J K L M N O P Q R S T U V W X Y Z 0-9

Swallow The Razor Guitar Tabs – Bang Camaro

CD, Sheet music, Poster

Do you like Swallow The Razor? Share with your friends now
Bass TabsTabs
Title : Swallow The Razor
Album : Bang Camaro

Notes: This is the first tab I've submitted, so any
feedback is welcome. I'll be finishing up this tab
with the solo when I get a spare couple hours, so enjoy
the rest til then.

=============================
Intro/Chorus Riff
|-----------------------------------------|
|-----------------------------------------|
|-----------------------------------22----|
|-4\-444---------22-2-4-444---------22-2--|
|-4\----333-444-----2-4----333-444-----2--|
|-2\----------------0-2----------------0--|

=============================
Verse
|-----2---2---2-------------|
|-----2---2---2---4--4--4---|
|-----2---2---2---4^(6)^4\2-|
|---x---x---x---x-----------|
|---x---x---x---x-----------|
|-2-------------------------|

Verse Fill
|-2h5p2p0h2p0--------------|
|-------------2h5p2--------|
|-------------------2p4h2--|
|--------------------------|
|--------------------------|
|--------------------------|

=============================
Pre-Chorus
|-----------------------|
|-----------------------|
|-----------------------|
|-9~~~~~~~~~7~~~~~~--2--|
|-9~~~~~~~~~7~~~~~~--2--|
|-7~~~~~~~~~5~~~~~~--0--|

=============================
Solo 1
|-5^-----------2----|-----------------------|
|------2h5p2-5---0--|-4^--------------------|
|-------------------|-4^-4-2---2------------|
|-------------------|--------4---4-2--------|
|-------------------|----------------4-3-2--|
|-------------------|-----------------------|

|----------------------------------12^-|
|-10----12^--13p12p10--12----10--------|
|----11--------------------11---11-----|
|--------------------------------------|
|--------------------------------------|
|--------------------------------------|

|-12^--9------------------------------------------------------|
|--------12-12^(14)-12^(14)^12-10----10-----------------------|
|---------------------------------11----11-10-9---------------|
|-----------------------------------------------11-10-9-------|
|-------------------------------------------------------12----|
|-------------------------------------------------------------|

In between bars of the solo, the rhythm guitar plays
|------|
|------|
|------|
|-2-4--|
|-2-4--|
|-0-2--|

=============================
Bridge
Slide into the F# chord on the first time through
Rhythm
|----------------------------------------------------|
|----------------------------------------------------|
|----------------------------------------------------|
|-4~~----------4~~---------4~~---------4~~-----------|
|-4~~----------4~~---------4~~-3p2h3~~-4~~-5p4h5~~---|
|-2~~-5p4h5~~--2~~-7p5h7~~-2~~---------2~~-----------|

Bridge Background Lick:
Couldn’t hear it over the chorus and the rhythm guitar, but it sounds like 
something in the E Mixolydian mode, and so I tabbed out a scale exercise that IS NOT from the 
but sounds close to what I can hear from it.
|----------------------------------------------------------|
|----------------------------------------------------------|
|----------------------------------------------------------|
|-----------------------------------------------12-14-16---|
|-----------12-------12-14----12-15-16-12-14-16------------|
|--12-14-16----14-16-------16------------------------------|

|--------------------------------------------------------14-17-14-16-|
|------------------17-15-14-14h15p14---------------14-15-------------|
|------13h14p13---------------------17-15-14-15-17-------------------|
|-15-17---------14---------------------------------------------------|
|--------------------------------------------------------------------|
|--------------------------------------------------------------------|

The end of the solo (only part I could actually hear):
|------------------------------------------|
|-----------------17^(19)^17^(19)^17^(19)--|
|-16^-16-14-16-14--------------------------|
|------------------------------------------|
|------------------------------------------|
|------------------------------------------|

|---------------16^(17)-16-14--------------|
|-17^(19)-17-14---------------17^(19)~~~~~-|
|------------------------------------------|
|------------------------------------------|
|------------------------------------------|
|------------------------------------------|
|------------------------------------------|


=============================
Solo 2
....coming soon





Comments


Popular Bang Camaro tabs & chords
Push Push Lady Lighting Bass Tabs
Night Lies Drum Tabs
Bang Camaro Tabs
Gates Of Love Intro 1 Tabs
Nightlife Commando Intro Tabs
Nightlife Intro 1 Tabs
Pleasure Tabs
Rock Of Mages Tabs
Rock Of Mages 1 Tabs
Rock Rebellion Tabs


Song lyrics



↑ Back to top | Tablatures and chords are parodies/interpretations of the original songs. You may use it for private study, scholarship, research or language learning purposes only
© 2014 AZChords.com Contact us | Privacy policy | DMCA | Add/correct tabs | Request tabs | Top 50 tabs