» » »

Bang Camaro, Rock Rebellion Tabs (ver.2)

Artists:  A B C D E F G H I J K L M N O P Q R S T U V W X Y Z # 

Rock Rebellion Tabs (ver.2)

Bang Camaro Tabs
 Rating:
4/5 (4 votes)
Rock Rebellion lessons Tabs too difficult? Try these video lessons and learn fast
1
                awesome song. period.
reg tuning i suppose

the beginning / riff thingy

e/----------------------15---------------------------------|
B/---------16--13~---------16~---------16--13~---9-9--9----|
G/-----------------------------------------------8-8--8----|
D/---------------------------------------------------------|
A/--15-15-----------15----------15-15----------------------|
E/---------------------------------------------------------|
                                                 * *
e/------------------15b16r15--------------------------------|
B/---------16--13~-----------6--------16--13~--13-13---13---|
G/---------------------------------------------12-12---12---|
D/----------------------------------------------------------|
A/--15-15----------------------15-15------------------------|
E/----------------------------------------------------------|
                                               *  *

verse thing
e/---------------------------------------------------|
B/---------------------------------------------------|
G/-------5--5-------5--5-----------------------------|
D/-------5--5-------5--5-----------------------------|
A/----6--3--3----6--3--3-----------------------------|
E/--6----------6-------------------------------------|
then later
e/-------------------------------------------|
B/-------------------------------------------|
G/-------5--5--------------------------------|
D/-------5--5--------------------------------| repeat  that until the
A/----6--3--3--3------3----------------------| chorus
E/--6------------6--6---3--------------------|

Chorus
e/--------------------------------------------|
B/--------------------------------------------|
G/---------------------------------------8----|
D/--7-7-7--7-----------5---7-7-7--7---5--8----|
A/--5-5-5--5-----------3---5-5-5--5---5--6----|
E/--------------3-4-6-----------------3-------|
    * * *       * * *
then back to main rift but at the end

e/------------------------------13-15-18-18b20------|
B/----------16--13--11-13-15-16---------------------|
G/--------------------------------------------------|
D/--------------------------------------------------|
A/--15-15-------------------------------------------|
E/--------------------------------------------------|

then repeat for verse 2 and chorus

then more cool rifts =)

e/----------------------------------------------------|
B/--16-----15------15b16r15--16----15------11b13r11---|
G/----------------------------------------------------|
D/-----17------17---------------17----17--------------|
A/----------------------------------------------------|
E/----------------------------------------------------|

e/----------------------------------------------|
B/--16-----15-----15b16r15--16~~~---------------|
G/----------------------------------------------|
D/----------------------------------------------|
A/-----17-----17--------------------------------|
E/--------------------------------------------\-|

then awesome guitar riffffffffffffffffff

e/--------------------------------------------------------------------|
B/--------------------------------------------------11--13------------|
G/--------------------------------------------------12--12------------|
D/-----5-----5-----5-----8--------------------------------------------|
A/-33333-33333-33333-33336--8-----6-----6------3-3---------------3----|
E/--------------------------6-44444-44444-4444-1-1-----------3-6------|
   ****  ****  ****  ****     ****  ****  **** * *           * * *

Drum Solo time (the timing is not hard to figure out, deal with it)
e/-----------------------------------------------------|
B/-----------------------------------------------------|
G/-5--5--5--3--3--3---------------------3--3--3--------|
D/-5--5--5--3--3--3---6--6--6--3--3--3--3--3--3--------|
A/-3--3--3--1--1--1---6--6--6--3--3--3--1--1--1--------|
E/--------------------4--4--4--1--1--1-----------------|

slow part

e/------------------------------------------------------|
B/-------4~-------4~-------------------------3~---------|
G/-----5-5------3-3--------5~-------3~-----3------------|
D/---5--------3----------6--------3------3--------------|
A/-3--------1----------6--------3------1----------------|
E/-------------------4--------1-------------------------|
(figure out pauses and stuff)

GUITAR SOLOOOOO

e/-------------------------------------------------------------------|
B/-------------------------------------------------------------------|
G/-------------------------------------------------------------------|
D/---------------------------------------------5~-5b6r5---3----------|
A/-1s3-3-5-6-5-3---5~-5b6r5--1s3--3-5-6-5-3-----------------6--5-----|
E/---------------6--------------------------6--------------------6---|

e/----------18---------18-18h20p18p16h18r16---15-15h16p15p13h15p13--|
B/-18b20r18----18b20------------------------------------------------|
G/------------------------------------------------------------------|
D/------------------------------------------------------------------|
A/------------------------------------------------------------------|
E/------------------------------------------------------------------|

e/---------------------------------------------------------------|
B/--18-18h20p18p16h18p16--15--15h16p15p13h15p13------------------|
G/-----------------------------------------------15--------------|
D/---------------------------------------------------------------|
A/---------------------------------------------------------------|
E/---------------------------------------------------------------|

e/---------------------------------------------------------------|
B/--20b21r20-20-18-18b20r18---15---------------------------------|
G/---------------------------------------------------------------|
D/---------------------------------------------------------------|
A/---------------------------------------------------------------|
E/---------------------------------------------------------------|

e/------------------------------------------------------------------------------|
B/------------------------------------------------------------------------------|
G/--12--12h13p12p10h12p10-----10-12h13p12p10h12p10-----10-12h13p12p10h12p10-----|
D/------------------------13-----------------------13---------------------------|
A/------------------------------------------------------------------------------|
E/------------------------------------------------------------------------------|

e/-------------------------------------------------------------------------------|
B/-------------------------------------------------------------------------------|
G/-10------------------------------------------------12-13-12--12h13p12p10h12----|
D/----12h13p12p10h12p10--------8s10~--13-12-13s15-13-----------------------------|
A/----------------------13-10~---------------------------------------------------|
E/-------------------------------------------------------------------------------|

e/----18-15-13-----15-13-------18-15-13----15-13-------13b15-----|
B/-------------15--------15-13----------15-------15-13-----------|
G/---------------------------------------------------------------|
D/---------------------------------------------------------------|
A/---------------------------------------------------------------|
E/---------------------------------------------------------------|

and then it goes back to chorus

and end on

e/------------------------|
B/--9~~~------------------|
G/--8~~~------------------|
D/------------------------|
A/------------------------|
E/------------------------|

and thats it. it's very surprising that no one else has made a guitar tab for this.
            
Submit corrections

comments powered by Disqus
↑ Back to top | Bang Camaro Tabs for Rock Rebellion. Lyrics for acoustic guitar and electric guitar. 1 Tablatures and chords are parodies/interpretations of the original songs. You may use it for private study, scholarship, research or language learning purposes only