» » »

Rock Of Mages Tabs (ver.1)

Artists:  A B C D E F G H I J K L M N O P Q R S T U V W X Y Z # 

Rock Of Mages Tabs (ver.1)

Bang Camaro
Rating:
4/5 (1 vote)

Tabs too difficult? Try these video lessons and learn fast.
                Incomplete. Will finish later. Just thought some people might like to get it sooner than later.
Written by TST1189

Intro
E|----------------------------------|
B|----------------------------------|
G|----------------------------------|
D|----------------------------------|
A|----------------------------------|
E|-12p0-0-7p0-0-000-8p0-0-5p0-0-000-|

Intro Lead
E|---------------------------------|-----7---8--------7----------------|-15-14-------|
B|-8b10----10b12----12b14----14b15-|-------------10-------8---10b12r10-|-------15----|
G|-9b11----11b12----12b14----14b16-|-9---------------------------------|----------14-|
D|---------------------------------|-----------------------------------|-------------|
A|---------------------------------|-----------------------------------|-------------|
E|---------------------------------|-----------------------------------|-------------|

Pre-Verse
E|------------------|-----------------|
B|------------------|-----------------|
G|-9-9----9-9-9-----|-----------------|
D|-9-9----9-9-9-----|-------------5-4-|
A|-7-7----7-7-7-----|-------5-7-5-----|
E|-----0--------000-|-5-7-8-----------|

Verse Lead
E|-------------------------------------------|-------------------------------------------|
B|-------------------------------------------|-------------------------------------------|
G|----12----14-----11------12--11h12p11-9----|----12----14-----11------12--11h12p11-9----|
D|-9-----9------9------9------------------12-|-9-----9------9------9------------------12-|
A|-------------------------------------------|-------------------------------------------|
E|-------------------------------------------|-------------------------------------------|

E|---------------------|-------------------------------------------------|----------------------|
B|----------15---------|-12h13p12p10-------------------------------------|----------------------|
G|-14b16~~~~~~~~~16r14-|-------------12h14p12p11-14h16p14p12-------------|-14b16r14p12-14-14b16-|
D|---------------------|-------------------------------------16h17p16p14-|----------------------|
A|---------------------|-------------------------------------------------|----------------------|
E|---------------------|-------------------------------------------------|----------------------|

E|-------------------------------------------|-------------------------------------------|
B|-------------------------------------------|-------------------------------------------|
G|----12----14-----11------12--11h12p11-9----|----12----14-----11----11-11b12r11--7-9----|
D|-9-----9------9------9------------------12-|-9-----9------9----------------------------|
A|-------------------------------------------|-------------------------------------------|
E|-------------------------------------------|-------------------------------------------|

E|-------------------------------|---------------------------------------14b16r14-12-14----|
B|----------------15-------------|---12h15p12h15p12--12h15p12h15p12--12-----------------15-|
G|-12-14-12-14b16~~~-14b16r14b16-|-14--------------14--------------14----------------------|
D|-------------------------------|---------------------------------------------------------|
A|-------------------------------|---------------------------------------------------------|
E|-------------------------------|---------------------------------------------------------|

Chorus
E|----------------------------------------------||----------------|-----------------|
B|----------------------------------------------||----------------|-----------------|
G|---------------10/-------------12/------------||-10/------------|-----------------|
D|-7/------------10/-------------12/------------||-10/----------5-|-----------------|
A|-7/-------------8/-------------10/------------||--8/----------5-|-3-2-3-5-3-2-----|
E|-5/---0-0-0-0-0------0-0-0-0-0-------0-0-0-0-0||--------0-0-0-3-|-------------3p0-|

Chant
E|---------------------------------------------||--------------------|--------------------|
B|---------------------------------------------||--------------------|--------------------|
G|---------------------------------------------||--------------------|--------------------|
D|-2-2---2-2-2---2-2-2---2-2-2---2-2-2---2-2-2-||--------------------|------4-5-------4-5-|
A|-2-2---2-2-2---2-2-2---2-2-2---2-2-2---2-2-2-||--------5-------5---|--------------------|
E|-0-0---0-0-0---0-0-0---0-0-0---0-0-0---0-0-0-||--0-3-3---3-5-5---5-|-0-0-------3-3------|

Pre-Verse
E|------------------|---------------------|
B|------------------|---------------------|
G|-9-9----9-9-9-----|---------------------|
D|-9-9----9-9-9-----|-2-0---0-------------|
A|-7-7----7-7-7-----|-----3---3-2-3-2-0---|
E|-----0--------000-|-------------------1-|
            
Tabs too difficult? Try these video lessons and learn fast.




comments powered by Disqus
↑ Back to top | Tablatures and chords are parodies/interpretations of the original songs. You may use it for private study, scholarship, research or language learning purposes only