» » »

Bang Camaro, Out On The Streets Tabs (ver.1)

Artists:  A B C D E F G H I J K L M N O P Q R S T U V W X Y Z # 

Out On The Streets Tabs (ver.1)

Bang Camaro Tabs
 Rating:
3.6/5 (7 votes)
Out On The Streets lessons Tabs too difficult? Try these video lessons and learn fast
1
                Title : Out On The Streets
Album : Bang Camaro

Notes: I'll tab out the solo when I have time someday. In the meantime,
have fun with the rest of it.

Key:

\ -----slide
b -----bend
r -----release bend (smoothly)
b(5) --bend until same note as fret 5
~ -----trill
x -----pay muted note
t -----tap-on with pick hand
h -----hammer on
p------pull off
^------pinch harmonic


Riff 1____(0:00)__________________________
Guitar 1
e|--------------------------------------------------------------------------|
B|--------------------------------------------------------------------------|
G|---6\---4-6\---4----------------------------------------------------------|
D|---6\---4-6\---4-5\--5----------------------------------------------------|
A|---4\---2-4\---2-5\--5---------2^(2)---2----------------------------------|
E|-----------------3\--3--0-2-4------4----4---------------------------------|

Guitar 2 
e|---------------------------------------------------------------------------|
B|---------------------------------------------------------------------------|
G|-------------------------------4^------------------------------------------|
D|------2-----------2-4-^4b(5)---x--6-4b(5)-  (slowwww bend)-----------------|
A|----2---4~~~~~~----------------x-------------------------------------------|
E|--4------------------------------------------------------------------------|

Riff 2_____(0:18)___________________________
Guitar 1 plays intro

Guitar 2
e|---------------------------------------------------------------------------|
B|-x-0-0-0-0--x-0-0-0-0--x-0-0-0-0--x-0-0-0-0--------------------------------|
G|-x-9-8-9-9~-x-9-8-9-9~-x-9-8-9-9~-x-9-8-9-6\-------------------------------|
D|---x-----x----x-----x----x-----x----x--------------------------------------|
A|---------------------------------------------------------------------------|
E|---------------------------------------------------------------------------|



Riff 3___(0:33)_________________________
Guitar 1
e|-----------------------------------------------------------------|---------|
B|-----------------------------------------------------------------|---------|
G|-----------------------------------------------------------------|---------|
D|------------------------4---------6---------7---------^6---------|---------|
A|------4-4-4-4-7-4-4-4-4---4-4-4-4---4-4-4-4---4-4-4-4------------|--12\4---|
E|-----------------------------------------------------------------|---------|






Riff 4____(1:04)______________________________________________

Guitar 1 (with octave above and below)
e|------------------------------------------------------------|
B|----------------------------------------12------------------|
G|-\11~~--9--\13~~-11--\14~~--13--\13~--14--------------------|
D|------------------------------------------14~~-11-14-11-----|
A|------------------------------------------------------------|
E|------------------------------------------------------------|

e|-----------------------------------------------------------------------|
B|-----------------------------------------------------------------------|
G|-----------------------------------------------------------------------|
D|--\11~~-13b(14)--13b(14)r13--11--13--14b(16)--14b(16)r14--13--14~~-----|
A|-----------------------------------------------------------------------|
E|-----------------------------------------------------------------------|

e|-----------------------------------------------------------------------------|
B|--------------------------------12-------------------------------------------|
G|-16b(18)-16b(18)r16--14-13~~-14----------------------------------------------|
D|-----------------------------------14--t14p12h13t14p12h13t14p12h13t14p12h13--|
A|-----------------------------------------------------------------------------|
E|-----------------------------------------------------------------------------|


Riff 5_______(1:56)_____________________

Guitar 1
e|--------------------------------------------------------------------------|
B|---------------------------------14---------------------------------------|
G|-6b(7)--7~~~~~--\11~~-13--\16~~--16b(18)~~~----- -------------------------|
D|-x------------------------------------------------------------------------|
A|--------------------------------------------------------------------------|
E|--------------------------------------------------------------------------|

Guitar 2
e|-----------------------------------------------------------------|---------|
B|-----------------------------------------------------------------|---------|
G|-----------------------------------------------------------------|---------|
D|------------------------4---------6---------7---------6^---------|---------|
A|------4-4-4-4-7-4-4-4-4---4-4-4-4---4-4-4-4---4-4-4-4------------|--12\4---|
E|-----------------------------------------------------------------|---------|

e|---------------------------------------------------------------------------|
B|---------------------------------------------------------------------------|
G|----------------2-2---4-4--------------------------------------------------|
D|----4-4---2-2---2-2---4-4--------------------------------------------------|
A|----4-4---2-2---0-0---2-2--------------------------------------------------|
E|----2-2---0-0--------------------------------------------------------------|

Riff 6_________(2:39)________________

Guitar 1
e|-----------------------------------------------------------------|
B|-----------------------------------------------------------------|
G|-----------------------------------------------------------------|
D|--7-----9-----11-------------------------------------------------|
A|--7-----9-----11-------------------------------------------------|
E|--5-----7-----9--9-9-9-9-9-9-9-9-9-9-9-9-9-9-9-9-9-9-9-9-9-9-9-9-|
Continue tremolo picking of D flat on low E string until 3:10, then
repeat the above phrase with the chords.

Guitar 2
==Pre solo==
e|-----------------------------------------------------------------|
B|-t16----------16-------------------------------------------------|
G|------16b(18)-----16b(18)r16--14h16p14p13~~----------------------|
D|--------------------------------------------13-14-14\16-14-13----|
A|-----------------------------------------------------------------|
E|-----------------------------------------------------------------|

e|-----------------------------------------------------------------|
B|-----------------------------------------------------------------|
G|-----------------------------------------------------------------|
D|-14p13p11~~~-9-9\11~~-9-9\11~~-9-9\11~~11\6~~~--------6\11~~~~---|
A|-----------------------------------------------------------------|
E|-----------------------------------------------------------------|


==Solo==
e|---------14---------------------14---------------------14--------|
B|---\14-17--16-17-14-17-16-17-17----16-17-14-17-16-17-17--16-17---|
G|-----------------------------------------------------------------|
D|-----------------------------------------------------------------|
A|-----------------------------------------------------------------|
E|-----------------------------------------------------------------|

Rest of the solo coming someday....
            
Submit corrections

comments powered by Disqus
↑ Back to top | Bang Camaro Tabs for Out On The Streets. Lyrics for acoustic guitar and electric guitar. 1 Tablatures and chords are parodies/interpretations of the original songs. You may use it for private study, scholarship, research or language learning purposes only