» » »

Nightlife Tabs (ver.1)

Artists:  A B C D E F G H I J K L M N O P Q R S T U V W X Y Z # 

Nightlife Tabs (ver.1)

Bang Camaro
Rating:
0/5 (0 votes)

Hard to play? Try these video lessons and learn fast.
                (Intro)

Tuning: Half Step // D# G# C# F# A# D#

m = Palm Mute
/ = Slide Up
\ = Slide Down

Intro:

e|---------------------------------------------------------------------------|
B|---------------------------------------------------------------------------|
G|---------------------------------------------------------------------------|
D|-----------------5---4-5-----------7---------------------7-5---------------|
A|---------------------------4---5-------------------7-5-7-------------------|
E|----/19\-----0-0---0-----0---0---0-----7-8-------0-------------------------|
              m m   m     m   m   m               m m m m


e|---------------------------------------------------------------------------|
B|---------------------------------------------------------------------------|
G|---------------------------------------------------------------------------|
D|---------------------------------------------------------------------------|
A|----------5-------5-7------------------------------------------------------|
E|----0-3-5---0-5-7----------------------------------------------------------|
      m m m   m m m



Very awesome riff and belonging to an equally awesome song, enjoy and I hope to tab the 
song soon.
            
Hard to play? Try these video lessons and learn fast. | Correct




comments powered by Disqus
↑ Back to top | Tablatures and chords are parodies/interpretations of the original songs. You may use it for private study, scholarship, research or language learning purposes only