» » »

Band Of Skulls, I Know What I Am Tabs (ver.1)

Artists:  A B C D E F G H I J K L M N O P Q R S T U V W X Y Z # 

I Know What I Am Tabs (ver.1)

Band Of Skulls Tabs
 Rating:
4/5 (4 votes)
I Know What I Am lessons Tabs too difficult? Try these video lessons and learn fast
1
                Aritst: Band of Skulls
Tuning: Standard


Intro
|------------------| 
|-3~---------------|
|-2~---------------|
|-0~---------------| 
|-0~---------------|
|------------------|

Verse 
2x
|----------------------------------------------------------| 
|----------------------------------------------------------|
|----------------------------------------------------------|
|----------------------------------------------------------| 
|----------------------------------------------------------|
|-0-000-000-000-000-000-000-000-000-000-000-000-000-000-00-|
PM- --- --- --- --- --- --- --- --- --- --- --- --- --- --

then
|------------------| 
|------------------|
|-7~---------------|
|-7~---------------| 
|-5~---------------|
|------------------|

And Verse again
2x
|----------------------------------------------------------| 
|----------------------------------------------------------|
|----------------------------------------------------------|
|----------------------------------------------------------| 
|----------------------------------------------------------|
|-0-000-000-000-000-000-000-000-000-000-000-000-000-000-00-|
PM- --- --- --- --- --- --- --- --- --- --- --- --- --- --

Then again
|------------------| 
|------------------|
|-7~---------------|
|-7~---------------| 
|-5~---------------|
|------------------|


Chorus
2x
(I’m not too sure about this part, so any help would be nice)
|-----------|-----0-------0--------0-------0----------------| 
|-----------|-5-xx5-xx5-xx5-55-5-xx5-xx5-xx5-55-5-----------|
|-----------|-7-xx7-xx7-xx7-77-7-xx7-xx7-xx7-77-7-----------|
|-----------|-x-xxx-xxx-xxx-xx-x-xxx-xxx-xxx-xx-x-----------| 
|-----------|-5-xx5-xx5-xx5-55-5-xx5-xx5-xx5-55-5-----------|
|-----------|-----------------------------------------------|
  “But it’s   Alright...”

|-----------------------------------------------------------| 
|-5-xx5-555-xx5-55-5-xx5-555-xx5-55-5----there’s some-------|
|-7-xx7---7-xx7-77-7-xx7---7-xx7-77-7---pinch harmonics-----|
|-7-xx7---7-xx7-77-x-xx7---7-xx7-77-7-----in there somewhere| 
|-5-xx5---5-xx5-55-5-xx5---5-xx5-55-5-----------------------|
|-----------------------------------------------------------|

Post-Chorus
|----------------------| 
|----------------------|
|-4~-------------------|
|-2~-------------------| 
|-2~-------------------|
|-0~-------------------|

Repeat the whole verse segment
Repeat Chorus

Solo
|---------|---------------------------------------| 
|---------|-555-----------5b-----555-----------5b-|
|-7p4h7p4-|-----7--44-777------4-----7--44-777----|
|---------|---------------------------------------| 
|---------|---------------------------------------|
|---------|---------------------------------------|

|----------------------------------------------------------| 
|---555-8-5--------------------1010-b11d10-8--101010/12-8--|
|-4---------7-4444-7-4-------------------------------------|
|----------------------7-5---------------------------------| 
|--------------------------7-------------------------------|
|----------------------------------------------------------|

|-------------------------------------------------------------------------| 
|-(10)b11-11-11-11-11-11-11-11-(11)d10-10-8-----555-8-5-------------------|
|---------------------------------------------4---------7-4444-7-4--------|
|------------------------------------------------------------------7-5----| 
|----------------------------------------------------------------------7\-|
|-------------------------------------------------------------------------|

Outro
(a second guitar/bass continues with palm mutes)
|-----------------------------------------------------------------------| 
|-----------------------------------------------------------------------|
|-------------------------9~----------------------7~--------------------|
|-------------------------9~----------------------7~--------------------| 
|-------------------------7~----------------------5~--------------------|
|-00-00-00-00-00-00-00-00-----------------------------------------------|
PM-- -- -- -- -- -- -- --

|-----------------------------------------------------------------------| 
|-----------------------------------------------------------------------|
|-2~----------------------------------------------7~--------------------|
|-2~----------------------2~----------------------7~--------------------| 
|-0~----------------------2~----------------------5~--------------------|
|-------------------------0~--------------------------------------------|

|-----------------------------------------------------------------------| 
|-----------------------------------------------------------------------|
|-2~----------------------------------------------7~--------------------|
|-2~----------------------2~----------------------7~--------------------| 
|-0~----------------------2~----------------------5~--------------------|
|-------------------------0~--------------------------------------------|

|-----------------------------------------------------------------------| 
|-----------------------------------------------------------------------|
|-2~--------------------------------------------------------------------|
|-2~----------------------2~--------------------------------------------| 
|-0~----------------------2~--------------------------------------------|
|-------------------------0~--------------------------------------------|
            
Submit corrections

comments powered by Disqus
↑ Back to top | Band Of Skulls Tabs for I Know What I Am. Lyrics for acoustic guitar and electric guitar. 1 Tablatures and chords are parodies/interpretations of the original songs. You may use it for private study, scholarship, research or language learning purposes only