» » »

Our Swords Bass tabs (ver.1)

Artists:  A B C D E F G H I J K L M N O P Q R S T U V W X Y Z # 

Our Swords Bass tabs (ver.1)

Band Of Horses
Rating:
0/5 (0 votes)

Hard to play? Try these video lessons and learn fast.
                -----------------------------------------------------------
-----------------------------------------------------------

Tuning: Half-step down
        Gb Db Ab Eb

This song is a lot of fun. It took a while to tab it out since it’s a bit hard to 
between the two basses and I’m using a guitar not a bass. =X
The song uses two basses, and I think the keyboardist too, but I’m not going to tab any 
the keys.
I’m tabbing Ben’s lead bass part, I’m pretty sure the other bass just plays the root 
of each of ben’s leads. Maybe I’ll tab it eventually.

Intro: repeat through end of first verse
    B               G#m
Gb|---------------------------------|
Db|---------------------------------|
Ab|-3-3-3-3-3-3-3-3-0-0-0-0-0-0-0-0-|
Eb|---------------------------------|

Verse: repeats throughout song
    B               G#m
Gb|---------5---------------5-------|
Db|-----5-------5-------7-------7---|
Ab|-3---------------0---------------|
Eb|---------------------------------|

Chorus:
    E                               Ebm
Gb|-----5-------5-------5-------5-------0-------0-------0-------0-|
Db|-3-------3-------3-------3-------2-------2-------2-------2-----|
Ab|---------------------------------------------------------------|
Eb|---------------------------------------------------------------|
    E                               F#
Gb|-----5-------5-------5-------5-------7-------7-------7-------7-|
Db|-3-------3-------3-------3-------5-------5-------5-------5-----|
Ab|---------------------------------------------------------------|
Eb|---------------------------------------------------------------|

After The second chorus there’s a verse that goes a little differently:
    B               G#m
Gb|-----9---12--9-----------9-------|
Db|-10------------------10------10--| 
Ab|-----------------12--------------|
Eb|---------------------------------| repeat three times, then:

    F#?               
Gb|-----0-------0-------0-------0-------0-------0-------0-------0-|
Db|-9-------9-------10------10------9-------9-------7-------5-----|
Ab|---------------------------------------------------------------|
Eb|---------------------------------------------------------------|

And back to the main riff/chords.

That’s all of the parts.

Enjoy!
            
Hard to play? Try these video lessons and learn fast. | Correct




comments powered by Disqus
↑ Back to top | Tablatures and chords are parodies/interpretations of the original songs. You may use it for private study, scholarship, research or language learning purposes only